- e-mail

 

 -

 LiveInternet.ru:
: 22.02.2011
: 11
: 20
: 32

:

(1)

,

, 05 2011 . 08:16 +
, - "-2, Lumen, - , " :) . , . < : >

, ,

1)---0---------0---------0----|----------------0------------------|----------------0--------------------|---------------0-------------------
2)------0---------0---------0-|------------3------3-----3-------|------------3--------3-----3--------|-----------3------3-----3---------
3)---------0----------0--------|--------2-------------2-----2----|--------0---------------0-----0----|-------2-------------2-----2-----
4)------------------------------|----0------------------------------|-----------------------------------|---0------------------------------
5)-------------------------------|-----------------------------------|---3------------------------------|-----------------------------------
6)---0--------------------------|-----------------------------------|-----------------------------------|------------------------------------

:


Em D

C D
.
,
.


,
,
.

:
Em
, ,
,
D ( )
, ,
Am ( , )
,
C ( 2) D ( 1)
, .
, ,
,



, ...

Em | D | Am | C | D | Em > 2







.
,





| 3 |
Em | D | C | D > 2

,
.

, ?



-
.

:  
(1)

, 02 2011 . 17:04 +

"" , , ,  . ( , - , ). ,  - "" ,  ...

,  Lumen -

, :

:

  . .











:

Riff2 (Distorted):
-------------------------------------------
-------------------------------------------
-9-9-9-9-7-7-7-7-5-5-5-5-7-7-7-7-
-9-9-9-9-7-7-7-7-5-5-5-5-7-7-7-7-
-7-7-7-7-5-5-5-5-3-3-3-3-5-5-5-5-
-------------------------------------------

Em ( 2 2 )
,  .

: Lumen -


,
.
, ,
, , .
,
, .
,
, ...

: E5 D5 | C5 D5 D#5

, .
- , .
,
, - .
,
, .
,
, ...



- ,
, , .
, ,
, ...
,
, .
,
, ...

:



( ) ;)

 


:  

 : [1]