-Музыка

 -Подписка по e-mail

 

 -Поиск по дневнику

Поиск сообщений в Я-жизнь_Я-смерть

 -Сообщества

Читатель сообществ (Всего в списке: 1) ru_garfield

 -Статистика

Статистика LiveInternet.ru: показано количество хитов и посетителей
Создан: 13.02.2009
Записей:
Комментариев:
Написано: 55

Записи с меткой табы

(и еще 204 записям на сайте сопоставлена такая метка)

Другие метки пользователя ↓

fleur mad world ouran high school host club борьба вино день святого валентина табы
Комментарии (0)

Fleur

Дневник

Воскресенье, 15 Февраля 2009 г. 16:36 + в цитатник
Flёur
Кто-то


Transcribed by Tifs



Riff: (Piano)

e||------7--8-------10--8-------------------|
B||--10-------------------10--9-------------|
G||-----------------------------------------|
D||-----------------------------------------|
A||-----------------------------------------|
E||-----------------------------------------|

e||---8-10-12-------13-12-10-12-12----------|
B||--------------------------------12-10-12-|
G||-----------------------------------------|
D||-----------------------------------------|
A||-----------------------------------------|
E||-----------------------------------------|

Куплет:

Dm F Am
Близка неизбежность, так мало любви, так много слов
Dm F Am
Совершенная нежность превращается в совершенное зло
Dm Am G F
Отвергая законы природы стоит у перил моста
Dm Am G F
Безумно глядя на воду совершенная красота

Припев:

Am Em
Кто-то мчался, падая с ног, плыл против течения, ехал на красный
C Dm
Просто чтобы сказать, что всё будет хорошо, что всё не напрасно
Am Em
Но ошибся дорогой, и не рассчитал траекторий полёта
C Dm
И мне снова приходится быть для тебя этим "кто-то"



Любить - это так глупо, Всё получилось не так, как хочется
Лезут холодные, Скользкие щупальца в мир одиночества
Калечат и ранят, и сердце сжимают вежливой ложью
Но мы же не станем холодными, скользкими тоже

Кто-то мчался, падая с ног, плыл против течения, ехал на красный
Просто чтобы сказать, что всё будет хорошо, что всё не напрасно
Но ошибся дорогой, и не рассчитал траекторий полёта
И мне снова приходится быть для тебя этим "кто-то"

Так хочется остановиться, cказать своим светлым порывам - хватит
Легко заблудиться в мире хитрых стратегий и тактик
Душа трепещет и плачет от того, что творится в уме
Но я твержу, что всё будет иначе. Ах, кто бы твердил это мне!

Кто-то мчался, падая с ног, плыл по течению, ехал на красный
Просто чтобы сказать, что всё будет хорошо, что всё не напрасно
Но ошибся дорогой, не рассчитал траекторий полёта
И мне так понравилось быть для тебя этим "кто-то"

Flёur
Формалин


Transcribed by svirg (kapuchinoff@gmail.com)



Dm Dm/5-
Она не придет - её разорвали собаки
Dm
Арматурой забили скинхеды
G
Надломился предательский лёд

Dm Dm/5-
Её руки подготовлены не были к драке
Dm
И она не желала победы
G
Я теперь буду вместо неё

Припев:
Dm Am F
Она плавает в формалине
Gm Dm
Несовершенство линий
Am F Gm
Движется постепенно
Dm Am F
У меня её лицо её имя
Gm Dm
Свитер такой же синий
Am F Gm
Никто не заметил подмены

Она не прейдет - руки были в змеиной норе
Голова в осином гнезде
А спина в муравьиной куче

Буду я - я из более прочного теста
Я достойна занять это место
Я много делаю лучше



* Dm/5- = [x x 0 1 3 1]


Fleur. Печальный клоун 2.

// Tabbed by greeneye.
// Замечания:
// 1. за тональность не отвечаю (вроде бы правильно)
// 2. за правильность тоже (все имхо :)
// 3. буду рад, если укажите на ошибки
// 4. mailto:jam@ukrpost.net


Вступление:

B B
----------------------------------
----------------------------------
-8--------------8-----------------
-9-----9--10-9--9--9--7--9--10-9--
-9--------------9-----------------
-7--------------7-----------------

B B B B B B C C
-------------------------------------
-------------------------------------
-8--------------8--4--4--4--4--5--5--
-9-----9--10-9--9--4--4--4--4--5--5--
-9--------------9--2--2--2--2--3--3--
-7--------------7--2--2--2--2--3--3--

B B
----------------------------------
----------------------------------
-8--------------8-----------------
-9-----9--10-9--9--9--7--9--10-9--
-9--------------9-----------------
-7--------------7-----------------

B B B7 B B7 B C C
-------------------------------------
-------------------------------------
-8--------------8--9--9--9--9--9--9--...
-9-----9--10-9--9--10-10-10-10-10-10-... (несколько раз)
-9--------------9--10-10-10-10-10-10-...
-7--------------7--8--8--8--8--8--8--...

Esus4 Em
-------
-------
-2-----
-2--2--
-2--2-- ... (4 раза)
-------

Аккорды, использованные в куплете:
B: 799877 (или на втором, но чтобы не ломать пальцы советую 7-ой %)
Em: 022000
Esus4: 022200
Am: 002210
C: 030210
Cadd9: 030230

B
Я знаю, ты взволнован -
B Esus4 Em Esus4 Em Esus4 Em Esus4 Em
ты так боишься чьих-то слез
B
Но я - всего лишь клоун,
B Esus4 Em Esus4 Em Esus4 Em Esus4 Em
не принимай меня всерьез...
B
Здесь неуместна жалость,
B Esus4 Em Esus4 Em Esus4 Em Esus4 Em
за что, скажи, меня жалеть?
B
Пусть у меня нет шансов,
B Esus4 Em Esus4 Em Esus4 Em Esus4 Em
но я могу тебя развлечь...

Припев:

G
Я запутаюсь в декорациях
C Am Am Am Am Am Am Am Am Am Am
и на грязный песок
С Cadd9 Cadd9 C
вдруг упаду...
G
Все вокруг начнут смеяться
C Am
и я увижу твое лицо
Esus4 Em Esus4 Em Esus4 Em Esus4 Em
в первом ряду.


А я, рискуя жизнью,
могу упасть к твоим ногам.
Но все мои ужимки -
пустой, дешевый балаган.
Я не скажу ни слова,
ведь у меня - немая роль.
Ведь я - печальный клоун,
ведь моя боль - смешная боль...

Я запутаюсь в декорациях
и на грязный песок
вдруг упаду...
Все вокруг начнут смеяться
и я увижу твое лицо
в первом ряду.

Проигрыш:

B B B C C C C C C C C \
----------------------------------------
---------------------------------------- |
-4--4--4-----5-----5--5--5--5--5--5--5-- |- ... 3 раза
-4--4--4-----5-----5--5--5--5--5--5--5-- |
-2--2--2-----3-----3--3--3--3--3--3--3-- |
-2--2--2-----3-----3--3--3--3--3--3--3-- /

C B
----------3--------------------2--------------
-------------5--------------------4-----------
-------5--------5-----------4--------4--------
----5--------------5-----4--------------4-----
-3--------------------2--------------------2--
----------------------------------------------

Esus4 Em (4 раза)


Никто уже не сможет
предотвратить мою беду.
Похлопай мне в ладоши
когда я снова упаду
Пускай мне станет хуже, -
тебе об этом не узнать.
А если будет нужно, -
я развлеку тебя опять...

Outro:

B B B C C C C C C C C \
----------------------------------------
---------------------------------------- |
-4--4--4-----5-----5--5--5--5--5--5--5-- |- ... 3 раза
-4--4--4-----5-----5--5--5--5--5--5--5-- |
-2--2--2-----3-----3--3--3--3--3--3--3-- |
-2--2--2-----3-----3--3--3--3--3--3--3-- /

(на фоне веселенькой песенки...)
C B
----------3--------------------2--------------
-------------5--------------------4-----------
-------5--------5-----------4--------4--------
----5--------------5-----4--------------4-----
-3--------------------2--------------------2--
----------------------------------------------


Flёur
На обратной стороне луны


Transcribed by KaiN


Em B
В небе полная луна
C
проплывает.
Em
Ты живешь там,
B C
ничего обо мне не зная.
Em B
Я пытаюсь изучать
C
лунную орбиту.
Em
Льется грусть с небес
B C
дождем метеоритным.
Am
Я сижу на крыше, -
D
так
Am
звезды все же ближе.
D
Там...

Em C Am D
На обратной стороне луны
Em
ты живешь
C Am D
и я тебя почти не вижу.
C D
Я сижу на крыше
C B
и шепчу стихи...
Em C
Может быть, когда-нибудь,
Am B
ты меня услышишь.

Все меняется вокруг...
Ну, а мне бы -
все сидеть здесь, на ветру,
под дождем и снегом.
Здесь приятнее мечтать.
здесь как-то легче...
Ведь расстоянье до луны -
не бесконечно...
Я сижу на крыше, -
так
звезды все же ближе.
Там...

На обратной стороне луны
ты живешь
и я тебя почти не вижу.
Я сижу на крыше
и шепчу стихи...
Может быть, когда-нибудь,
ты меня услышишь.

Льется грусть с небес
дождем метеоритным.
Что-то странное с моим
сердечным ритмом...
Знаю, это может быть
только раз в столетье, -
ты случайно глянешь вниз
и меня заметишь...
Я сижу на крыше, -
так
заезды все же ближе.
Там...

Метки:  

 Страницы: [1]