-ћузыка

 -ѕодписка по e-mail

 

 -ѕоиск по дневнику

ѕоиск сообщений в vassily_k

 -—татистика

—татистика LiveInternet.ru: показано количество хитов и посетителей
—оздан: 18.09.2005
«аписей:
 омментариев:
Ќаписано: 148

«аписи с меткой аккорды

(и еще 2095 запис€м на сайте сопоставлена така€ метка)

ƒругие метки пользовател€ ↓

аккорды богин€ на шоссе василий к. дай себе! интеллигенты новый sound новый альбом одиссей
 омментарии (2)

«емлемер

ƒневник

„етверг, 15 јпрел€ 2010 г. 00:06 + в цитатник
јноним (vassily_k) все записи автора «емлемер


intro:

E -5--------3--5--6--5--------3-------10--------8-12--8-10----------------3-
B ----6-----3-----------6--------5-------10-----8-13--8-10-101110-8-10-6------
G -------7--3--------------7--------5-------10--9-14--9-10--------------------
D ----------------------------5-------12--------------------------------------
A -5-----------------5--------------------------------------------------------
E ----------3-----------------------------------------------------------------

riff1:

E -5--------3--5--6--5--------3-------10--------8-12-10-8--------10-----------
B ----6-----3-----------6--------5-------10-----8-------------10--------------
G -------7--3--------------7--------5-------10--9----------10-----------------
D ----------------------------5--------0--------------------------------------
A -5-----------------5--------------------------------------------------------
E ----------3-----------------------------------------------------------------

fignya1:

B --56---
G ----7--


---

¬се аккорды берутс€ с барре.


Dm C B
“варь ли дрожаща€ €, или право имею п€тнать кровью снег?
Am B C7
¬олос мой сед, и нет золота в гласе, вокруг не тот мир, не тот век
F Am B C7 B7
ћеланхоли€ бьЄтс€ в висках, как отрава в крови, как врождЄнный дефект
Am Dm Gm C Dm (riff1)
”нижа€сь у зеркала, € говорю ему "ƒа", а оно мне: "ћой сладкий, конечно же, нет!"

“ак чем крас€т снег, чем они крас€т снег, заплати за успех, слава любит не всех
«амок - над нами, и окна гор€т, кроме выстрелов, слышен там смех...
ќна ждЄт теб€, каждый день ждЄт теб€, где холопы холопов - все, как один
Am Dm (fignya1) Gm — Dm (riff1)
’от€т еЄ трахнуть, но зр€... это делает сам √осподин

G D C H
√де же ты шл€ешьс€, что ж теб€ носит, мой белый герой, € - твой легионер
G D C H
ћне не хватает твоей непреклонности в этой обители скорби
A7
ћой брат «емлемер

“ы поставил свой рваный башмак на тропу борьбы с мировым бардаком
ѕоследний потомок ушедших на звЄзды племЄн
Ќам дадут выпить в долг, ты расскажешь мне о землемерных работах, потом
“ы л€жешь у печки, € буду беречь твой сон

ј утром допрос, и наш наглый отказ расцен€т, как вызов на бой
ћы - за дубины, но где же враги, только ты, и € за тобой...
» в их снисходительной жалости к нам что-то есть от больных и врачей
’оть они нос€т чЄрное, мы - в пестроте заплаток из светлых идей

√де же ты шл€ешьс€, что ж теб€ носит, мой белый герой, € - твой легионер
ћне не хватает твоей непреклонности в этой обители скорби
ћой брат «емлемер

“ы дошЄл до неЄ, вы имели любовь в лужах пива на гр€зном полу
√осподин был ло€лен, он просто исчез, вр€д ли ты помешал бы ему
», насилу€ снег, цепь глубоких следов - вслед за вами, в ночную пургу
Ќо в груди у любви эмбрион перемен пробудившись, сотрЄт всЄ в труху
Em H G Hm(F#m) Em H G F#m
„ужие дети скакали вокруг, телефонные линии шли не туда
Em H G F#m Em H G F#m
 то-то лез под подол, кто-то в щЄлку гл€дел и ты чудом осталс€ в живых, как ты смог
Em H G F#m
ѕосле слов, еЄ слов, еЄ слов, еЄ слов
G H
 оторых ты не ожидал?
E Am
“ы, конечно, не знал, что смена лица -
E Am
—войство местной природы и веры:
Am Em
"≈сли можешь, прости, но мне надо идти
H7 Em
я давно люблю «емлемера
≈сли хочешь, прости, но мне надо идти
я давно люблю «емлемера!"

√де же ты шл€ешьс€, что ж теб€ носит, мой белый герой, € - твой легионер
ћне не хватает твоей непреклонности в этой обители скорби
ћой брат «емлемер

ћетки:  
 омментарии (7)

ѕожалуйста

ƒневник

ѕонедельник, 03 ћарта 2008 г. 12:13 + в цитатник
Wildflowers (vassily_k) все записи автора ≈сть ли у кого-нибудь аккорды на песни "¬ернутьс€ назад", "ћонотеизм", "»сусы ’ристосы", "≈сли б мо€ мила€..." и "«емлемер", или хот€ бы на некоторые из них? я буду безумно благодарна за них!
–убрики:  аккорды

ћетки:  

 —траницы: [1]