-

  • (29)
  • =) (21)
  • (15)
  • (4)
  • (1)
  • (0)

 -

   R-n-R_KpecT

 - e-mail

 

 -

 LiveInternet.ru:
: 22.04.2006
: 73
: 11
: 39

:

.


: (0), =)(21), (4), (1), (29)
(0)

, 24 2007 . 03:48 +
- (R-n-R_KpecT) D G

A D
:
" ,
!
, ,
, !
A
!"

Riff#1
E$-----------------------------------------
B$-----------------------------------------
G$-11-11-9-9-11-11-9-9-11-11-9-9-12-11__---
D$-----------------------------------------
A$-----------------------------------------
E$-----------------------------------------

E$-----------------------------------------
B$-----------------------------------------
G$-11-11-9-9-11-11-9-9-11-11-9-9-7__-------
D$-----------------------------------------
A$-----------------------------------------
E$-----------------------------------------

D G A D
,
:
" , !
H -
!"

G7 F7# Hm
,
Hm D E F7#
!
G7 F# Hm
,
Hm E F#
, !

Riff#1

,
, - .
...
.

,
!
,
, !

E$---------------------------------------------
B$--------------------------------11~-11~------
G$--11-11-9-9-11-11-9-9-11-11-9-9------------+- x2
D$---------------------------------------------
A$---------------------------------------------
E$---------------------------------------------

E$---------------------------------------------
B$---------------------------------------------
G$--------9-11-12-12-12-12---------9-11-12-12-- x2
D$--12-12--------------------12-12-------------
A$---------------------------------------------
E$---------------------------------------------

-
- , .
: "!"
, , .

,
!
,
, !


(0)

, 24 2007 . 03:46 +
- (R-n-R_KpecT) Dm Gm A



-

A# F Dm



# A















Dm A#



Gm F C









.

,













(0)

Ҩ

, 24 2007 . 03:34 +
- (R-n-R_KpecT) Intro:

A5 H5 D5 E5

1---------------7-7----7---10-10--7-10---12-10-9-7-------------------------
2---10-10----10-----10-----------------------------------------------------
3---------11---------------------------------------------------------------
4--------------------------------------------------------------------------
5--------------------------------------------------------------------------
6--------------------------------------------------------------------------

, +
.


:

A5 E5 A5

A5 E5 A5
.

F#5 C#5
H , , ,
D5 E5
.


A5 E5 A5

A5 E5 A5

F#5 C#5

H5 C#5 F#5


:

A5 E5

F#5 H5

A5 E5

F#5 D5 E5


,
,
, ,
? .


,
,
, ,
.

,
,
,
.

:

,
,
, ,
.

,
,
,
.

:


(0)

, 24 2007 . 03:05 +
- (R-n-R_KpecT) Hm
E|-7-7---------10-10-| repeat
H|-----8-8-7-7-------|
G|-------------------|
D|-------------------|
A|-------------------|
E|-------------------|


Hm (G) Hm
e|------------------------------|
H|---------------------8-7------|
G|-4--4---4--4---4-6-7------7---|
D|------------------------------|
A|------------------------------|
E|------------------------------|

Hm (G) Hm
E|-----------------7-5-7--------|
H|---------------7-------7--5---|
G|-4--4---4--4------------------|
D|------------------------------|
A|------------------------------|
E|------------------------------|

- ,
:

Hm
E|-----------------|
H|-----------------|
G|-----------------|
D|-----------------|
A|-2-2---------5-5-| repeat
E|-----3-3-2-2-----|

Hm
E|-----------------|
H|-3---2-3---5-3-2-| repeat
G|-----------------|
D|-----------------|
A|-----------------|
E|-----------------|


", , - ,
,
- , - ,
, .

Hm G A D
, , ,
,
A G
,
A C
."

- ,
?
" , , ,
H , , ,
, , , ,
".

,
:
"
".

", ," - ,
H ,
أ , ,
,
H, , -
.


Hm G A D
E|----------------------------|
H|-7---7---8---8-5--5-7-5-----| x2
G|------------------------7---|
D|----------------------------|
A|----------------------------|
E|----------------------------|


" , , ,
..."


(0)

, 24 2007 . 03:04 +
- (R-n-R_KpecT) Dm Am Dm Gm Dm Gm
E|-1-----1-3--5--5--0-0-------3-1--------3-1--------| x2
H|---3-3-----------------1-1------3-3--------3-3----|
G|------------------------------------0----------0--|


Dm Gm Am
y y ,
Dm Gm Am Dm
p, , .
Dm Gm Am
y
Dm Gm Am Dm
.

F C Gm Hb
y y , y y,
F C A
H p yy p p.


(0)

, 24 2007 . 03:04 +
- (R-n-R_KpecT) Am F G



C Am F G



C Am F G



C Am F G











E G





:

Am C G Am

,

C G



Am C G Am



D G

!









,











(0)

!

, 09 2007 . 05:37 +
- (R-n-R_KpecT) Am Dm E
,
Am Dm E

Am Dm E

C D E Am




-
,

E Am Dm
,
E Am
?
Dm G C E
,
Dm G E Am

F G Am
!








,


,
?
,

!


(0)

, 09 2007 . 05:35 +
- (R-n-R_KpecT) E G Am Dm

E Am

E G Am Dm
,
E Am


-




Am Dm
,
Am Dm
?
Am Dm

E Am
, ...

,

,







,
?

, ...

,

,


,




,
?

, ...

F# A Hm Em

F# Hm

F# A Hm Em
-
F# Hm


,

,


Hm Em
,
Hm Em
?
Hm Em

F#
...

Hm Em
,
Hm Em

Hm Em
,
F# Hm
, ...


(0)

, 09 2007 . 05:33 +
- (R-n-R_KpecT) Dm
, ,
F
, ,
G
, ,
A
, .

,
,
, ,
.

F G Dm F G
-,
F G A
, ,
F G A
, .

, , ,
, ,
, ,
.

, , ,
,
,
, .

-,
, ,
, .

, , ,
,
: " ",
.

-,
, ,
, .


(0)

, 09 2007 . 04:37 +
- (R-n-R_KpecT) Am
, , ,
C
,
D
,
Dm
,
E
, .

Am C
:
D E
" , ,
Dm7
, , ?
E
, ? . , ."

,
, , ,
- ,
, ,
, - .

:
", , ?
, , ?
, ? . , ."

,
, ,
, , ,
, .

" , , , ,
?
? ?
, . , ."


(0)

, 09 2007 . 04:33 +
- (R-n-R_KpecT) : F# /A /H /E /F#


:

F# A H



F# E F#



F# A H



F# (E F#)

- -



:

F# A

, ,

H E F#



F# A



H E F#

, !









:

" ?" - .





-

" ?" -

" , " - .



: , ........


(1)

""

, 05 2007 . 03:53 +
- (R-n-R_KpecT) A5(V) D5(V)
:
F5(V) G5(V) A5(V)
- !
A5(V) D5(V)
-
F5(V) G5(V) A5(V)
!

A5 D5 D#5 B5
- !
, !
,
.

,

,
.

:
- !
-
!

- ?
?
!
?!

:
A5(V) D5(V)
, , , ?
F5(VIII)G5(X)A5(V)
!
A5(V) D5(V)
---
F5(VIII)G5(X)A5(V)
.
, ,
.
!
, !

- , , ,
.
-
, .

:
- , !
-
!

!
, ,
-
, .

, ,


.

:
, , , ?
!
---
.
, ,
.
!
, !


(3)

, 14 2006 . 04:25 +
- (R-n-R_KpecT) Em G A



Em G A



Em G A



A H D

























:

H



C

-

Em G A G C D

, -





,


























E5 G5 A5

,

E5 G5 A5

E,

E5

!


(0)

p y

, 14 2006 . 04:19 +
- (R-n-R_KpecT) A
py p,
G
H p, !
Hm
- p p
D
p-y.
A
p p p,
G
Hp y ,
Hm
y pp,
D
H py p y.

A C G
! ! p !
A C G
! ! y!
A C G
p!
A C G A
p!

Hy ,
p y , p p,
p y,
- py y !
y y,
- pp .
H p -
H y !

! ! p !
! ! y!
p!
p!

y
H ,
p ,
p .
H p,
, , y.
,
p p-y!

! ! p !
! ! y!
p!
p y!


(0)

, 14 2006 . 04:12 +
- (R-n-R_KpecT) Gm#(IV) Em(VII) H(VII) D#(VI)
!!! , .

Gm# Em
,
H D#
,
Gm# Em
\", ,
H D#
\".
,
.
, ,
.

!!! .

Gm#
,
Gm# H(VII) Fm# Cm#(IX)
.
Gm# H(VII) Em Cm#(IX)
" , ?" -
Gm# H(VII) Fm# Cm#(IX)
.
Cm#(IX) A(V)
:
H(VII) Gm#
" ,
Cm#(IX) A(V)

H(VII) Gm#
,
Cm# A(V)
-- - ,
H Gm#
-- - ,
Cm# A(V) H(VII) Gm#
-- - ".

A(V) H(VII) Gm# Cm#
" , , ,
A(V) H(VII) Gm# Cm#
, !!!"

!!!

-

" ,
-, , ".
" , ,


-- - ,
-- -
-- - .
,
,
,
, - . .
.



 : [1]