-Музыка

 -Подписка по e-mail

 

 -Поиск по дневнику

Поиск сообщений в Nightwish_fans

 -Сообщества

Читатель сообществ (Всего в списке: 1) Найтвиш

 -Статистика

Статистика LiveInternet.ru: показано количество хитов и посетителей
Создан: 05.07.2005
Записей:
Комментариев:
Написано: 19002

Выбрана рубрика tabs.


Другие рубрики в этом дневнике: wallpapers(110), video-interviews(13), video-concerts(244), various video(36), various photo(16), Tuomas Holopainen(52), Tarja Turunen(31), songs-translation(6), songs-text(5), Something interesting(174), screenshoots(15), scans(12), promo-photo(29), projects(90), photo-live(334), Our friends(3), Nightwish(68), news(268), mp3-songs(87), Marco Hietala(43), links(97), Jukka Nevalainen(11), interviews(115), Fans(129), ex-Nightwish Tarja Turunen (закрыто)(55), Emppu Vuorinen(19), download-links(15), Discussion(20), contacts(1), clips(8), avatars(44), audio-interview(2), art(93), Anette Olzon(167), about everyone from Nightwish(75)

tabs

Дневник

Пятница, 08 Июля 2005 г. 23:07 + в цитатник
Рубрики:  tabs

tab - Angels Fall First.

Дневник

Среда, 06 Июля 2005 г. 23:42 + в цитатник
Ada_Demina (Nightwish_fans) все записи автора Angels Fall First.



Tears laid for them..
e:---------0--------------3-----0-------------0---------------0----------
B:-----------0--------------1-----1-----------------------------1---0----
G:-------0-----2--------0-----0-----------0-7----7----------2-----2---0--
D:-----2---------2----2-----------------4----------4------2--------------
A:---2--------------3----------------/5---------------0-0----------------
E:-0---------------------------------------------------------------------

..fear
e:---------1--------------0------------------3--------------0---------
B:-----------1--------------1---1-0------------0--------------1---0---
G:-------2-----2--------0-----0------------0-----0--------2-----2---0-
D:-----3---------3----2------------------0---------0----2-------------
A:---3--------------3------------------2--------------0---------------
E:-1---------------------------------3--------------------------------

e:---------1--------------3-----0------------3--------
B:-----------1--------------1-----1------------0------
G:-------2-----2--------0-----0------------0-----0----
D:-----3---------3----2------------------0---------0--
A:---3--------------3------------------2--------------
E:-1---------------------------------3----------------


Verse:

Not relieved by thougts of Shangri-La..
e:---------0---------------0----------------3----------------2-3-2h3p2-----
B:-----------0---------------0--------- -------0-----------(3)----------3---
G:-------0-----2---------0-----2----------0-----0-------(2)--------------2-
D:-----2---------2-----2---------2------0---------0---(0)------------------
A:---2---------------2----------------2--------------0---------------------
E:-0---------------0----------------3--------------------------------------

e:---------0---------------0----------------3----------------2--------
B:-----------0---------------0----------------0------------0---0------
G:-------0-----2---------0-----2----------0-----0--------5-------5----
D:-----2---------2-----2---------2------0---------0----1--------------
A:---2---------------2----------------2--------------2-------------2--
E:-0---------------0----------------3---------------------------------

I'll never understand the meaning of the right..
e:---------0---------------0----------------3----------------2-3-2h3p2-----
B:-----------0---------------0----------------0-----------(3)----------3---
G:-------0-----2---------0-----2----------0-----0-------(2)--------------2-
D:-----2---------2-----2---------2------0---------0---(0)------------------
A:---2---------------2----------------2--------------0---------------------
E:-0---------------0----------------3--------------------------------------

e:---------0---------------0----------------3----------------2--
B:-----------0---------------0----------------0------------0----
G:-------0-----2---------0-----2----------0-----0--------5------
D:-----2---------2-----2---------2------0---------0----1--------
A:---2---------------2----------------2--------------2----------
E:-0---------------0----------------3---------------------------


Flute part:

Am Em Am G B


Chorus:

Needed elsewhere...
e:---------0--------------3-----0-------------0--------------0----------
B:-----------0--------------1-----1----------------------------1---0----
G:-------0-----2--------0-----0-----------0-7----7---------2-----2---0--
D:-----2---------2----2-----------------4----------4-----2--------------
A:---2--------------3----------------/5--------------0-0----------------
E:-0--------------------------------------------------------------------

Tears laid for them..
e:---------0--------------3-----0-------------0---------------0----------
B:-----------0--------------1-----1-----------------------------1---0----
G:-------0-----2--------0-----0-----------0-7----7----------2-----2---0--
D:-----2---------2----2-----------------4----------4------2--------------
A:---2--------------3----------------/5---------------0-0----------------
E:-0---------------------------------------------------------------------

..fear
e:---------1--------------0------------------3--------------0---------
B:-----------1--------------1---1-0------------0--------------1---0---
G:-------2-----2--------0-----0------------0-----0--------2-----2---0-
D:-----3---------3----2------------------0---------0----2-------------
A:---3--------------3------------------2--------------0---------------
E:-1---------------------------------3--------------------------------

e:---------1--------------3-----0---------------
B:-----------1--------------1-----1----------3--
G:-------2-----2--------0-----0------------0----
D:-----3---------3----2------------------0------
A:---3--------------3------------------2--------
E:-1---------------------------------3----------



more flutes..



solo:

guit1
e:-0--2-3-------------------------0--3-2h3p2p0--------------------------------------(12)-
B:--------0--0-1-3-1h3p1p0------(0)------------2-5--5-5--7-8-0--0-1-3-1h3p1p0------------
G:-------------------------0---(0)--------------------------------------------0-2--------
D:----------------------------(0)--------------------------------------------------------
A:---------------------------------------------------------------------------------------
E:---------------------------------------------------------------------------------------


flute solo..


guit2 1,2,3 4
e:---------0------------------------0--------|--------- e:-0-- end here the last time..
B:-----------0--------------------1---1------|------0-- B:-1--
G:-------0-----2----------0-----0-------0----|----2---- G:-2--
D:-----2---------2------0-----2-----------2--|---2----- x4 D:-2--
A:---2----------------2-----3----------------|-0------- A:-0--
E:-0----------------3------------------------|--------- E:----



Sing me a song...

Am Em Dm Am x6

fade out...





Tablature explanation:
(12) = ghost note
h = hammer on
p = pull off
/ = slide
Рубрики:  tabs

TAB

Дневник

Среда, 06 Июля 2005 г. 23:41 + в цитатник
Ada_Demina (Nightwish_fans) все записи автора Author/Artist: Nightwish
Title: Come Cover Me
Album: Wishmaster
Transcribed by: X X X
Email: Student.art@gmx.de

Lets the ... Ruck'n Roll! ;-)
Hey it's a great Song and very easy to play ,so have a lot of FUN with it
and all Thanks to Mr.Tuomas Holopainen!!!(He is the Ging of Gothik!)


At first the flute enters!

And than the Guitar Intro!(There are two Guitars playing, so make your choise! )


Guitar1:
E:------------------------------------------------------------------------------|
B:--10-10/11-11-11\10-8-13-13/15-10-10\8-6-6/8-8--------------------------------|
G:-----------------------------------------------10\9-10\9-7--------------------|
D:------------------------------------------------------------------------------|
A:------------------------------------------------------------------------------|
E:------------------------------------------------------------------------------|


Guitar2:
E:------------------------------------------------------------------------------|
B:--3-3-3-3-3-3-3-3-3-3-3-3-3-3-3-3-3-3-3-3-3-3-3-3-3-3-3-3-3-3-3-3-------------|
G:--2-2-2-2-2-2-2-2-3-3-3-3-3-3-3\2-0-0-0-0-0-0-0-0-2-2-2-2-2-2-2p0--3-5-7------|
D:--0-0-0-0-0-0-0-0-0-0-0-0-0-0-0-0-0-0-0-0-0-0-0-0-0-0-0-0-0-0-0-0--3-5-7------|
A:-------------------------------------------------------------------1-3-5***---|
E:------------------------------------------------------------------------------|
x x x x x x x x x x x x x x x x

And than the 2nd time again!

Guitar1: (Emppu Vourinen)
E:----------------------------------------8-8\6---------------------------------|
B:--10-10/11-11-11\10-8-13-13/15-10-10/11-------8-------------------------------|
G:------------------------------------------------10\9-10\9-7-------------------|
D:------------------------------------------------------------------------------|
A:------------------------------------------------------------------------------|
E:------------------------------------------------------------------------------|

Guitar2: (Emppu Vourinen)
E:------------------------------------------------------------------------------|
B:--3-3-3-3-3-3-3-3-3-3-3-3-3-3-3-3-3-3-3-3-3-3-3-3-3-3-3-3-3-3-3-3-------------|
G:--2-2-2-2-2-2-2-2-3-3-3-3-3-3-3\2-0-0-0-0-0-0-0-0-2-2-2-2-2-2-2p0--3-5-7------|
D:--0-0-0-0-0-0-0-0-0-0-0-0-0-0-0-0-0-0-0-0-0-0-0-0------------------3-5-7------|
A:-------------------------------------------------------------------1-3-5***---|
E:------------------------------------------------------------------------------|
x x x x x x x x x x x x x x x x


Than Tarja enters with her sweet voice! "Come wet a widow's eye..."
Guitar1:
E:----------------------------------------------------|
B:----------------------------------------------------|
G:-4---------7----4-----------------------------------|
D:-4---------7-2--4--------2---------5--7---2---------|
A:-2**-**-**-5-2--2**-**-*-2---------5--7---2---------|
E:-------------0-----------0**-**-**-3--5---0**-**-*--|
x x x x


Guitar1:
E:---------------------------------------------------------------------->
B:--5-0-0-7-0-8-0-0-5-0-0-7-0-8-0-0-5-0-0-7-0-8-0-10-0-8-0-7-0-8-0-0---->
G:---------------------------------------------------------------------->
D:---------------------------------------------------------------------->
A:---------------------------------------------------------------------->
E:---------------------------------------------------------------------->
x x x x x x x x x x x x x x x x x x x



Guitar1:
E:--5-----7---8-----5-----7---8-----5-----7---8-----5------------------|
B:---------------------------------------------------------------------|
G:----4-4---4---4-4---4-4---4---4-4---4-4---4---4-4-----5--------------|
D:------------------------------------------------------5--5-----------|
A:------------------------------------------------------3--5-----------|
E:---------------------------------------------------------3-----------|
x x x x x x x x x x x x x x x A.H


And Tarja enters again! "Come cover me..."
Guitar1: Play 2 Times!
E:------------------------------------------------------------------------------|
B:--3-3-3-3-3-3-3-3-3-3-3-3-3-3-3-3-3-3-3-3-3-3-3-3-3-3-3-3-3-3-3-3-------------|
G:--2-2-2-2-2-2-2-2-3-3-3-3-3-3-3\2-0-0-0-0-0-0-0-0-2-2-2-2-2-2-2p0--3-5-7------|
D:--0-0-0-0-0-0-0-0-0-0-0-0-0-0-0-0-0-0-0-0-0-0-0-0------------------3-5-7------|
A:-------------------------------------------------------------------1-3-5------|
E:------------------------------------------------------------------------------|
x x x x x x x x x x x x x x x x


Guitar1: The short and easy solo!:-)
E:------------------------------------------------------------------------------>
B:-------------------------5/6---7/8----8-10-11-10h11p10------------------------>
G:---------7---7/8-8-8\7-5-----5-----7------------------------------------------>
D:--5-7-8------------------------------------------------15--13-12-10----------->
A:------------------------------------------------------------------------------>
E:------------------------------------------------------------------------------>
x x

E:------------------------------------------------------------------------------|
B:------------------------------------------------------------------------------|
G:------------------------------------------------------------------------------|
D:-----------12-----------------------------------------------------------------|
A:--10-12-13----13-12-10---8~-------5~------------------------------------------|
E:------------------------------------------------------------------------------|
x x x

Tarja: "For me for you...."
Guitar1: Play 2 times:
E:-------------------------------------------|
B:-------------------------------------------|
G:--7-----------------7----------5-----------|
D:--7----------3------7----------5----5------|
A:--5**-**-**--3------5**-**-**--3----5------|
E:-------------1----------------------3------|



Tarja: "Not a world but your fine grace..."
Guitar1:
E:----------------------------------------------------|
B:----------------------------------------------------|
G:-4---------7----4-----------------------------------|
D:-4---------7-2--4--------2---------5--7---2---------|
A:-2**-**-**-5-2--2**-**-*-2---------5--7---2---------|
E:-------------0-----------0**-**-**-3--5---0**-**-*--|
x x x x


Guitar1:
E:---------------------------------------------------------------------->
B:--5-0-0-7-0-8-0-0-5-0-0-7-0-8-0-0-5-0-0-7-0-8-0-10-0-8-0-7-0-8-0-0---->
G:---------------------------------------------------------------------->
D:---------------------------------------------------------------------->
A:---------------------------------------------------------------------->
E:---------------------------------------------------------------------->
x x x x x x x x x x x x x x x x x x x



Guitar1:
E:--5-----7---8-----5-----7---8-----5-----7---8-----5------------------|
B:---------------------------------------------------------------------|
G:----4-4---4---4-4---4-4---4---4-4---4-4---4---4-4-----5--------------|
D:------------------------------------------------------5--5-----------|
A:------------------------------------------------------3--5-----------|
E:---------------------------------------------------------3-----------|
x x x x x x x x x x x x x x x A.H


Only Tarja:"Come cover me with you...



Guitar1: Tarja:" COME COVER COME COVER ME NOW !"
E:---------------------------------------------------------------------------->
B:---------------------------------------------------------------------------->
G:--3--5-7-------------------------------------------------------------------->
D:--3--5-7-------------------------------------------------------------------->
A:--1--3-5***--5-----5-----5---6---6---6---6p5-3-----3-----3---5---5---5--5p3->
E:---------------3-3---3-3---3---3---3---3-------3-3---3-3---3---3---3---3---->
x x x x x x x x x x x x x x x x

--------------|
--------------|
--8-----------|
--8--3--5-----|
--6--3--5-----|
-----1--3-----|


THE END !!!
Рубрики:  tabs

TAB

Дневник

Среда, 06 Июля 2005 г. 23:40 + в цитатник
Ada_Demina (Nightwish_fans) все записи автора Gethsemane
by Nightwish - from the album Oceanborn
music & lyrics by Tuomas Holopainen

transcribed by Guilherme Dakr
e-mail: heptagram@ig.com.br
home page: www.sigilpage.hpg.com.br




Intro:

e------------------------------------------------------------------
b----------------------------12------------------------------------
g-----------------9-11-12-9----------------------------------------
d-----------9------------------------------------------------------
a---7-7-7-7-7------------------------------------------------------
E------------------------------------------------------------------

e------------------------------------------------------------------
b------12-10-12-8-12-7-12---12-10-12-8-12-7-12---------------------
g---9---------------------9----------------------------------------
d------------------------------------------------------------------
a------------------------------------------------------------------
E------------------------------------------------------------------

e------------------------------------------------------------------
b------------------------------------------------------------------
g------------------------------------------------------------------
d---------------10-9-7-----7-----------7-----9-7-------------------
a-----10-----7---------10----10-7-9-10---10------10-7-9------------
E-----8------------------------------------------------------------

e------------------------------------------------------------------
b------------------------------------------------------------------
g------------------------------------------------------------------
d------------------------------------------------------------------
a-----9----------------9-------------------------------------------
E-----7-77777777777777-7-------------------------------------------
..............

Then, repeat, except for:

e------------------------------------------------------------------
b------12-10-12-8-12-7-12---12-------------------------------------
g---9---------------------9----8--9(a.h.)--------------------------
d------------------------------------------------------------------
a------------------------------------------------------------------
E------------------------------------------------------------------

at the end, it goes like this:

e------------------------------------------------------------------
b------------------------------------------------------------------
g------------------------------------------------------------------
d------------------------------------------------------------------
a-----9----------------9-----9-7-5-4-2-------------------------------
E-----7-77777777777777-7--77-7-5-3-2-0-------------------------------
................

Verse:

e------------------------------------------------------------------
b------------------------------------------------------------------
g------------------------------------------------------------------
d-----------------------------------2---------------5----7---------
a---2-------------------------------0-0-0-000-0-00--3----5---------
E---0--0-0-000-0-0---000-0-000-0-00--------------------------------
. . ... . . ... . ... . .. . . ... . ..

On the second time, there is a tempo break that I can't exactly transcribe,
you'll have to figure it out by yourself. The difference is that the E chord
lasts a little longer.

Chorus:

e------------------------------------------------------------------
b------------------------------------------------------------------
g------------------------------------------------------------------
d---5----9---7-----------------------------------------------------
a---3----7---5--7--------------------------------------------------
E---------------5--000000000000000---------------------------------


Strike a D5 chord and go back to intro riff.

Play verse again, chorus again, strike the D5 chord again and go to this part:

e------------------------------------------------------------------
b------------------------------------------------------------------
g------------------------------------------------------------------
d---------------------4p3------------------------------------------
a----4-44-4-44-4-4444-----4-44-4-44--4h5p4-2-4-2-------------------
E------------------------------------------------5-4---------------
.. .. .... .. .. . . . . .
e------------------------------------------------------------------
b------------------------------------------------------------------
g------------------------------------------------------------------
d---------------------4p3-------------5\4--------------------------
a----4-44-4-44-4-4444-------6--6--77--3\2--------------------------
E---------------------------4--4--55-------------------------------
.. .. .... . . ..

Repeat the first part, and then

e------------------------------------------------------------------
b------------------------------------------------------------------
g------------------------------------------------------------------
d---------------------4p3-------------7----------------------------
a----4-44-4-44-4-4444-------6--6--77--5----------------------------
E---------------------------4--4--55-------------------------------
.. .. .... . . ..


A flute enters. Guitar plays this:

e------------------------------------------------------------------
b------------------------------------------------------------------
g------------------------------------------------------------------
d----6-----6-----6--------4-----6--------4----6--------------------
a----4-4-4-4-4-4-4...-4-4-2-4-4-4----2---2--3-4... (repeat)--------
E------------------------------------0-----------------------------
. . . . . . . .


Strike C# 7 times before striking the B.

After this, repeat the whole first part again.

There's a strings part and then the guitar enters.

e------------------------------------------------------------------
b------------------------------------------------------------------
g------------------------------------------------------------------
d------------------------------------------------------------------
a-----2------------------------------------------------------------
E-----0------------------------------------------------------------

e------------------------------------------------------------------
b------------------------------------------------------------------
g------------------------------------------------------------------
d--7--------------------------------------------------------------
a--5---2------------2-----------2-----------------------------------
E------0--00-000-00-0-00-000-00-0-0-00-000--------------------------
.. ... .. .. ... .. . .. ...

I'm not very sure if this strumming is correct. Good luck :P


e------------------------------------------------------------------
b------------------------------------------------------------------
g------------------------------------------------------------------
d---7-7-5-----5-----5-----5-----5-----------------------------------
a---5-5-3-3-3-3-3-3-3-3-3-3-3-3-3... (repeat the chord 8 times)-----
E------------------------------------------------------------------
. . . . . . . .

e------------------------------------------------------------------
b------------------------------------------------------------------
g------------------------------------------------------------------
d----9-----12-10-9-------------------------------------------------
a----7-------------12-10-9--------10-------------------------------
E--------------------------12-10--8--------------------------------

This passage is very low... I'm not even sure if this is really a guitar, but
I guess it is. However, if you don't play it and go straight to the C chord,
no-one will notice :)

Well, after that:

e------------------------------------------------------------------
b------------------------------------------------------------------
g------------------------------------------------------------------
d----9-------7--------------------------7---9\---------------------
a----7-------5-------7------------------5---7\--------------------
E--------------------5---0000000000--------------------------------
.......... ( I won't count how many times!)

Again, only strings... (Without yooou the poetry in me... blabla)



e------------------------------------------------------------------
b------------------------------------------------------------------
g------------------------------------------------------------------
d----*/5-/7-/9*------7-9-10-9-7-7-9-7---9-7------------------------
a-----/7-/9-/10~----------------------9-7-5-5---7------------------
E-------------------------------------------3---5------------------

(*The harmony is played by a second guitar)

Guitar solo:

e-------------------------------------------------3-5-6~-----------
b-------------6p4-6-4-3----3h4-6-4-3--------3-4-6------------------
g----5b7~~--------------5~--------------3-5------------------------
d-------------------------------------5----------------------------
a------------------------------------------------------------------
E------------------------------------------------------------------


e------5h6p5\3-----------------------------------------------------
b--------------6~~---10h11-11--10-8h10p8---------------------------
g---------------------7/10-10--10-7h10p7-(guitar 2)----------------
d------------------------------------------------------------------
a------------------------------------------------------------------
E------------------------------------------------------------------

aaaaaaaah you don't expect my poor self to tab out all those fast notes,
do you? The only help I can ofer you is that it's in Eb major.
Have a good time!
Later, after Emppu's epileptic attack, we have this:


e----------------------------13----------------------13------------
b-------------------13-15-16------16-15-13-----15-16-----16-15-13--
g----------12-13-15------------------------------------------------
d----13-15---------------------------------------------------------
a------------------------------------------------------------------
E------------------------------------------------------------------


e------------------------------------------------------------------
b------------------------------------------------------------------
g----15-14---------------------------------------------------------
d----------15---/17--12--10~~--------------------------------------
a------------------------------------------------------------------
E------------------------------------------------------------------


e------------------------------------15------------------------------
b-----------------------------15-------------------------------------
g---------------12------12-15----15----------------------------------
d--------12---------------------------------------12-----------------
a--10-13----10------------------------------10-13----13-10-----------
E--------------------------------------------------------------------
. . . . . . . . . . . . .

e------------------------------------------------------------------
b------------------------------------------------------------------
g-----10-----12----------------------------------------------------
d-----10-----12----------------------------------------------------
a-----8------10----------------------------------------------------
E------------------------------------------------------------------


Questions? Comments? Guitar classes? Flames?
E-mail me: heptagram@ig.com.br
Рубрики:  tabs

TAB

Дневник

Среда, 06 Июля 2005 г. 23:39 + в цитатник
Ada_Demina (Nightwish_fans) все записи автора Author/Artist: Nightwish
Title: The Kinslayer
Album: Wishmaster
Transcribed by: Artur Derksen
Email: Student.art@gmx.de

Its my first tab and I think its cool because here are no missing things!
So if you find mistakes please let me know!
Have a lot of fun with it and LETS THE FUCKING ROCKN'N ROLL!!!He



Intro:
e:---------------------------------------------------------------------------|
B:---------------------------------------------------------------------------|
G:------2-------------2---------------------2-------------2------------------|
D:-2-2--2--4--7--2-2--2--4--7--------2-2-2--2--4--7--2-2--2--4--7------------|
A:-2-2--0--2--5--2-2--0--2--5--5--4--2-2-2--0--2--5--2-2--0--2--5--5--4------|
E:-0-0-----------0-0-----------3--2--0-0-0-----------0-0-----------3--2--2---|
x x x x x x x x x

Part 1:
After the Intro 2X:
e:-----------------------------------------------------------------------------|
B:-----------------------------------------------------------------------------|
G:---------------------------------------------4-2-------4---4-----------------|
D:-2-----2-----5---4-------2---4---5-----5---------5-4-5---4-------------------|
A:---2-2---2-2---2---2-5-2---2---2---2-2---2-2---------------------------------|
E:-----------------------------------------------------------------------------|
x x x x x x x x x x x x x

Part 2:
This here 2X:
e:-----------------------------------------------------------------------------|
B:-----------------------------------------------------------------------------|
G:-----------------------------------------------------------------------------|
D:---------------------------------------------6-4-------6---6-----------------|
A:-4-----4-----7---6-------4---6---7-----7---------7-6-7---6-------------------|
E:---4-4---4-4---4---4-7-4---4---4---4-4---4-4---------------------------------|
x x x x x x x x x x x x x

In this part Tarja starts to sing: " For whom the gun tolls . . . .
You have to listen to the Rhythm while Tarja is singing!!!
Repeat this | |Repeat this | |
Part 15x: | |Part 15x: | |
e:-------------|-------------|---------------|--------------|
B:-------------|-------------|---------------|--------------|
G:-------------|-------------|---------------|--------------|
D:-------------|-------------|---------------|-4-3----------|
A:-------------|-------------|-5-4-2-0-------|-----7-6------|
E:-5-4-2-0-----|--0-2-4-5----|---------------|--------------|
x x x x x x x x x x x x

Repeat this | |Repeat this | |Repeat this |
Part 7x: | |Part 7x: | |Part 6x: |
e:-------------|---------|------------|--------|------------|-----------|---
B:-------------|---------|------------|--------|------------|-----------|---
G:-------------|---------|------------|--------|------------|--9-9--4-4-|---
D:-------------|--6--6---|------------|--5--5--|------------|--9-9--4-4-|---
A:-------------|--6--6---|------------|--5--5--|--5-4-2-0---|--7-7--2-2-|---
E:-5-4-2-0-----|--4--4---|--5-4-2-0---|--3--3--|------------|-----------|---
x x x x x x x x x x x x


. . . left to be followed "

Repeat this | |
Part 7x: | |
e:------------|---------------|
B:------------|---------------|
G:------------|---------------|
D:------------|--4-3----------|
A:-5-4-2-0----|------7-6------|
E:------------|---------------|
x x x x |
|

Part 2:
This here 2X:
e:-----------------------------------------------------------------------------|
B:-----------------------------------------------------------------------------|
G:-----------------------------------------------------------------------------|
D:---------------------------------------------6-4-------6---6-----------------|
A:-4-----4-----7---6-------4---6---7-----7---------7-6-7---6-------------------|
E:---4-4---4-4---4---4-7-4---4---4---4-4---4-4---------------------------------|
x x x x x x x x x x x x x

You have to listen to this part of the song to get the right rithm!

e:------------------------------------------------------|
B:------------------------------------------------------|
G:--6-6--6-6--6-6--6-6--6-6--6-6--6-6--6-6---66-6-77-7--|
D:--6-6--6-6--6-6--6-6--6-6--6-6--6-6--6-6---66-6-77-7--|
A:--4-4--4-4--4-4--4-4--4-4--4-4--4-4--4-4---44-4-55-5--|
E:------------------------------------------------------|
x x x x x x x x x x x x x x x x xx xx

e:-----------------------------------------------------------|
B:-----------------------------------------------------------|
G:-----------------------------------------------------------|
D:--2-2--2-2--2-2--2-2--22---2--5-5--5-5--5-5--7-7--7-7--7---|
A:--2-2--2-2--2-2--2-2--22---2--5-5--5-5--5-5--7-7--7-7--7---|
E:--0-0--0-0--0-0--0-0--00-3-0--3-3--3-3--3-3--5-5--5-5--5---|
x x x x x x x x xx x x x x x x x x x x x x x


e:-----------------------------------------------------------|
B:-----------------------------------------------------------|
G:---------------------------------------------5--5--5--5----|
D:--2-2--2-2--2-2--2-2--22---2--7-7--7-7--7-7--5--5--5--5----|
A:--2-2--2-2--2-2--2-2--22---2--7-7--7-7--7-7--3--3--3--3----|
E:--0-0--0-0--0-0--0-0--00-3-0--5-5--5-5--5-5----------------|
x x x x x x x x xx x x x x x x x x

e:-----------------------------------------------------------|
B:-----------------------------------------------------------|
G:-----------------------------------------------------------|
D:--2-2--2-2--2-2--2-2-22---2--5-5--5-5--5-5--7--7--7--7-----|
A:--2-2--2-2--2-2--2-2-22---2--5-5--5-5--5-5--7--7--7--7-----|
E:--0-0--0-0--0-0--0-0-00-3-0--3-3--3-3--3-3--5--5--5--5-----|
x x x x x x x x xx x x x x x x x x





e:------------------------------------------------------------|
B:------------------------------------------------------------|
G:---------------------------------------------4--4--4--4-----|
D:--2-2--2-2--2-2--2-2--22---2--7-7--7-7--7-7--4--4--4--4-----|
A:--2-2--2-2--2-2--2-2--22---2--7-7--7-7--7-7--2--2--2--2-----|
E:--0-0--0-0--0-0--0-0--00-3-0--5-5--5-5--5-5-----------------|
x x x x x x x x xx x x x x x x x x

e:------------------------------------------------------------------------------
B:------------------------------------------------------------------------------
G:-------7--7------------------7--7----------8-------7--7----------7-------7--7-
D:--2----7--7--2---7--7--7-\---7--7--2----7--8--2----7--7--2----7--7--2----7--7-
A:--2----5--5--2---7--7--7-\---5--5--2----7--6--2----5--5--2----7--5--2----5--5-
E:--0----------0---5--5--5-\---------0----5-----0----------0----5-----0---------


e:--------------|
B:--------------|
G:----------8---|
D:--2----7--8---|
A:--2----7--6---|
E:--0----5------|

And now Tarja's singing and the voice of the shootin boys is talking:
"Facing this unbearabla fear like meeting an old friend". . ."Time to die poor . . .
"In this world of million religions . . ." "Your praying is in vain . . ."

Repeat 2x:
e:---------------------------------------------------------------------------|
B:---------------------------------------------------------------------------|
G:---------------------------------------------------------------------------|
D:---------------------------------------------6-4-------6---6---6-----------|
A:-4-----4-----7---6-------4---6---7-----7---------7-6-7---6-----6-----------|
E:---4-4---4-4---4---4-7-4---4---4---4-4---4-4-------------------4-----------|
x x x x x x x x x x x x x

"Yahaha . . ."

e:-------------------------------------------------------
B:-------------------------------------------------------
G:----------------------7--7-------------------------7---
D:--2-2--2-2--2-2--2-2--7--7--2-2--2-2--2-2--2-2--7--7---
A:--2-2--2-2--2-2--2-2--5--5--2-2--2-2--2-2--2-2--7--5---
E:--0-0--0-0--0-0--0-0--------0-0--0-0--0-0--0-0--5------
x x x x x x x x x x x x x x x x

e:------------------------------------------------------|
B:------------------------------------------------------|
G:----------------------7--7-------------------------8--|
D:--2-2--2-2--2-2--2-2--7--7--2-2--2-2--2-2--2-2--7--8--|
A:--2-2--2-2--2-2--2-2--5--5--2-2--2-2--2-2--2-2--7--6--|
E:--0-0--0-0--0-0--0-0--------0-0--0-0--0-0--0-0--5-----|
x x x x x x x x x x x x x x x x

Only 1x:
e:---------------------------------------------------------------------------|
B:---------------------------------------------------------------------------|
G:---------------------------------------------------------------------------|
D:---------------------------------------------6-4-------6---6---6-----------|
A:-4-----4-----7---6-------4---6---7-----7---------7-6-7---6-----6-----------|
E:---4-4---4-4---4---4-7-4---4---4---4-4---4-4-------------------4-----------|
x x x x x x x x x x x x x

Here you have to listen to the Rithm.
The Voice of the boys: "Not a hero unless you die Our species eat the . . ."
e:-------------------------------------------------------|
B:-------------------------------------------------------|
G:--6-6--6-6--6-6--6-6--66-----9-9--9-9--9-9--11-11------|
D:--6-6--6-6--6-6--6-6--66-77--9-9--9-9--9-9--11-11-99---|
A:--4-4--4-4--4-4--4-4--44-77--7-7--7-7--7-7--9--9--99---|
E:-------------------------55-----------------------77---|
x x x x x x x x xx xx x x x x x x x x xx

Tarja with a high voice:"Drunk with the blood of your victims . . ."

e:-------------------------------------------------------|
B:-------------------------------------------------------|
G:--6-6--6-6--6-6--6-6--6-6--4-4--4-4--4-4---------------|
D:--6-6--6-6--6-6--6-6--6-6--4-4--4-4--4-4--7-7-7-7------|
A:--4-4--4-4--4-4--4-4--4-4--2-2--2-2--2-2--7-7-7-7------|
E:------------------------------------------5-5-5-5------|
x x x x x x x x x x x x x x x x

The Voice of the boys:"Run away with your impeccable kin!"

e:-------------------------------------------------------|
B:-------------------------------------------------------|
G:--6-6--6-6--6-6--6-6-66-----9-9--9-9--9--11-11-11-11---|
D:--6-6--6-6--6-6--6-6-66-77--9-9--9-9--9--11-11-11-11---|
A:--4-4--4-4--4-4--4-4-44-77--7-7--7-7--7--9--9--9--9----|
E:------------------------55-----------------------------|
x x x x x x x x xx xx x x x x x

Tarja talks:"Good wombs hath borne bad sons . . ."
e:-------------------------------------------------------|
B:-------------------------------------------------------|
G:--6-6--6-6--6-6--6-6--6-6--4-4--4-4--4-4---------------|
D:--6-6--6-6--6-6--6-6--6-6--4-4--4-4--4-4--6-6-6-6------|
A:--4-4--4-4--4-4--4-4--4-4--2-2--2-2--2-2--6-6-6-6------|
E:------------------------------------------4-4-4-4------|
x x x x x x x x x x x x x x x x

Listen to the Rithm:
Tarja:"Cursing.God.why? . . ."
e:-----------------------------------------------------|
B:-----------------------------------------------------|
G:--6-6-6-6-66---------6-6-6-6-66----------------------|
D:--6-6-6-6-66----6-6--6-6-6-6-66----5-5-5-------------|
A:--4-4-4-4-44***-6-6--4-4-4-4-44***-5-5-5-------------|
E:----------------4-4----------------3-3-3-------------|
x x x x xx x x x x xx

Now you have to play it quikly:
Tarja:"15 candles Redeemers of this world
Dwell in hypocrisy: How were we supposed to know"
e:------------------------------------------|----------|
B:------------------------------------------|----------|
G:----------9-9-4-4-------------------------|-The-End--|
D:--4-------9-9-4-4--4--------4-3-----------|----------|
A:--4-------7-7-2-2--4------------7-6-------|----------|
E:--2*****-----------2*****-----------------|----------|
X x
I think thats all , please^10 let me know if there are mistakes :-)!
Рубрики:  tabs

TAB

Дневник

Среда, 06 Июля 2005 г. 23:38 + в цитатник
Ada_Demina (Nightwish_fans) все записи автора Nightwish - Moondance From Ocenaborn
Tab by Abel...Of Darkness (midgar31@hotmail.com)

Standard Tuning (EADGBE)

Piano Intro.



Riff A
5 Times:
|----------------------------------------|
|----------------------------------------|
|----------------------------------------|
|----------------------------------------|
|-----------------8-----7------7---5--5--|
|-5--5-5-5--5-5-5-6-----5----x-5-x-3--7--|


Slow Part.


Riff B1
Two Times:
|------------------------------------------------------|
|------------------------------------------------------|
|---------------5---5---5---7---7---7------------------|
|---7---7---7---5---5---5---7---7---7---5---5---7---7--|
|---7---7---7-3-3-3-3-3-3-5-5-5-5-5-5---5---5---7---7--|
|-5-5-5-5-5-5-------------------------3-3-3-3-5-5-5-5--|


Riff B2
Two Times:
|------------------------------------------------------|
|------------------------------------------------------|
|---7---7---7---------------7---7---7------------------|
|---7---7---7---7---7---7---7---7---7-7---------5------|
|-5-5-5-5-5-5---7---7---7-5-5-5-5-5-5-7---------5------|
|-------------5-5-5-5-5-5-------------5---------3------|

Riff B3
Two Times: (Second time Play the part with *)
|------------------------------------------------------|
|------------------------------------------------------|
|---------------------5-------7------------------------|
|---7---7---7-7-------5-------7--------5--------7------|
|---7---7---7-7-------3-------5--------5--------7------|
|-5-5-5-5-5-5-5------------------------3--------5------|
**********************************


Riff C
Two Times:
|-------------------------------------------------------------------|
|-------------------------------------------------------------------|
|--------------------7-7-7-8-7-5-7---8-10-8-7-8-7-5-7-------5-------|
|-5-7-8-5-5-5-7-8-5-5---------------------------------8-8-8---7---5-|
|---------------------------------------------------------------8---|
|-------------------------------------------------------------------|

Riff A
Four Times:

|--------------|
|--------------|
|--------------|
|--------------|
|-7--5--7-7-7--|
|-5--3--5-5-5--|


Any Mistake Please Send a mail to Midgar31@hotmail.com, thanks!
Рубрики:  tabs

TAB

Дневник

Среда, 06 Июля 2005 г. 23:36 + в цитатник
Ada_Demina (Nightwish_fans) все записи автора Nightwish: Nighquest
Words & Music by T.Holopainen

tab by Mikko Mattila (anoli@sci.fi)
standard tuning (EADGBE)


Intro/Chorus Riff: (Guitar 1)


|--------------------------------------------------------|
|--------------------------------------------------------|
|-------------------5---4p2--0h2-------0h2---5--4p2-0-2--|
|-------------------5---4p2--0h2-3-2h3-0h2---5--4p2-0-2--|
|-----7\\\\-----0-0---0----------3-2h3-----0-------------|
|-5-5-5\\\\----------------------------------------------|
* * *****
|--------------------------------------------------------|
|--------------------------------------------------------|
|-----5h7p5--2------5---4p2--0h2-------0h2---5--4p2--0-2-|
|-----5h7p5--2------5---4p2--0h2-3-2h3-0h2---5--4p2--0-2-|
|-0-0--------0----0--------------3-2h3-----0-------------|
|--------------------------------------------------------|

|--------------------------------------------------------|
|--------------------------------------------------------|
|-----7h9p7--2------5---4p2--0h2-------0h2---5--4p2--0-2-|
|-----7h9p7--2------5---4p2--0h2-3-2h3-0h2---5--4p2--0-2-|
|---0--------0----0--------------3-2h3-----0-------------|
|--------------------------------------------------------|

|--------------------------------------------------------|
|--------------------------------------------------------|
|-----5h7p5--2------5---4p2--0h2-------0h2---5--4p2--0-2-|
|-----5h7p5--2------5---4p2--0h2-3-2h3-0h2---5--4p2--0-2-|
|-0-0--------0----0--------------3-2h3-----0-------------|
|--------------------------------------------------------|

|---------------------------------------------|
|---------------------------------------------|
|-----5h7p5--2------2---0-2---2------2---0-2--|
|-----5h7p5--2------2---0-2---2------2---0-2--|
|-0-0--------0----0---0-------0----0---0------|
|---------------------------------------------|

|---------------------------------------------|
|---------------------------------------------|
|-2------2---0-2--4-5-4-4p0---2------2---0-2--|
|-3------3---0-3--5-7-5-5p0---2------2---0-2--|
|------0----------------------0----0---0------|
|---------------------------------------------|

|---------------------------------------------|
|---------------------------------------------|
|-2------2---0-2---2------2---0-2--4-5-4-4p0--|
|-2------2---0-2---3------3---0-3--5-7-5-5p0--|
|-0----0---0------------0---------------------|
|---------------------------------------------|

Lick: (not sure about this...)
|---------------------------------------------|
|---------------------------------------------|
|-9p7h9~~---7h9p7p5---------------------------|
|-------------------9-7-5---------------------|
|-------------------------9-7-5---------------|
|-------------------------------9-7-5---------|


Intro Riff: (Guitar 2)
|--------------------------------------------------------|
|--------------------------------------------------------|
|--------------------------------------------------------|
|--------------------------------------------------------|
|--------------------------------------------------------|
|--------------------------------------------------------|

|--------------------------------------------------------|
|--------------------------------------------------------|
|-----5h7p5--2-2-2---------------------------------------|
|-----5h7p5--2-2-2---------------------------------------|
|------------0-0-0---------------------------------------|
|--------------------------------------------------------|

|--------------------------------------------------------|
|*-------------------------------------------------------|
|-----5h7p5--2------5---4p2--0h2-------0h2---5--4p2--0-2-|
|-----5h7p5--2------5---4p2--0h2-3-2h3-0h2---5--4p2--0-2-|
|------------0----0--------------3-2h3-----0-------------|
|--------------------------------------------------------|


* = 3rd guitar plays this:
|--------------------------------------------------------|
|--------------------------------------------------------|
|-----5h7p5----------------------------------------------|
|-----5h7p5--7-------------------------------------------|
|--------------------------------------------------------|
|--------------------------------------------------------|


|--------------------------------------------------------|
|--------------------------------------------------------|
|-----5h7p5--2------5---4p2--0h2-------0h2---5--4p2--0-2-|
|-----5h7p5--2------5---4p2--0h2-3-2h3-0h2---5--4p2--0-2-|
|-0-0--------0----0--------------3-2h3-----0-------------|
|--------------------------------------------------------|

|---------------------------------------------|
|---------------------------------------------|
|-----5h7p5--2------2---0-2---2------2---0-2--|
|-----5h7p5--2------2---0-2---2------2---0-2--|
|-0-0--------0----0---0-------0----0---0------|
|---------------------------------------------|

|---------------------------------------------|
|---------------------------------------------|
|-2------2---0-2--4-5-4-4p0---2------2---0-2--|
|-3------3---0-3--5-7-5-5p0---2------2---0-2--|
|------0----------------------0----0---0------|
|---------------------------------------------|

|---------------------------------------------|
|---------------------------------------------|
|-2------2---0-2---2------2---0-2--4-5-4-4p0--|
|-2------2---0-2---3------3---0-3--5-7-5-5p0--|
|-0----0---0------------0---------------------|
|---------------------------------------------|

|-----------------------------|
|-----------------------------|
|-2------5---4p2--0h2---------|
|-2------5---4p2--0h2-5--5-5--|
|-0----0--------------5--5-5--|
|---------------------3--3-3--|

Verse Riff A:
|-------------------------------------------------------|
|-------------------------------------------------------|
|-2-------------------------2-------------------5-----7-|
|-2---------------------5-5-2-------------------5-----7-|
|-0-0-0-0-0-0-0-0-0-0-0-5-5-0-0-0-0-0-0-0-0-3-3-3-5-5-5-|
|-----------------------3-3-----------------------------|

|-----------------------------------------------------------|
|-----------------------------------------------------------|
|---------------------------2---------------5-5-----7-7-----|
|-----------------------5-5-2---------------5-5---5-7-7---5-|
|-0-0-0-0-0-0-0-0-0-0-0-5-5-0-0-0-0-0-0-0-0-3-3-0-5-5-5-0-5-|
|-----------------------3-3-----------------------3-------3-|


Verse Riff B:
|-------------------------------------------------------|
|-------------------------------------------------------|
|-/9-7-5---4h5---5---4-5p4-2---/9-7-5---4-5~~---7-7-7---|
|-----------------------------------------------7-7-7-7-|
|--------0-------------------0--------0-------3-5-5-5-7-|
|-----------------------------------------------------5-|

|-----------------------------------------------------|
|-----------------------------------------------------|
|-/9-7-5---4h5---5---4-5p4-2---/9-7-5---4-5~~---7-7-7-|
|-----------------------------------------------7-7-7-|
|--------0-------------------0--------0-------3-5-5-5-|
|-----------------------------------------------------|

the other guitar plays the same thing one octave lower...


Bridge Riff (Chords):
|-----------------------------------|
|-----------------------------------|
|-------5--7-----------2------------|
|-3-----5--7-----3-----2-----5------|
|-3-----3--5-----3-----0-----5------|
|-1--------------1-----------3------|


Verse Riff A
Verse Riff B
Bridge Riff
Intro/Chorus Riff (without *)

to be continued...
Рубрики:  tabs

TAB

Дневник

Среда, 06 Июля 2005 г. 23:35 + в цитатник
Ada_Demina (Nightwish_fans) все записи автора Passion And The Opera
by Nightwish
from Oceanborn
--------------------------------


Tabbed by: Fredrik Olsson
e-mail: fredrik.olsson@mbox329.swipnet.se


Tuned in E (regular)



Intro:

guit 1
p.m . . . . . . . . . . .
e:-------------------------------------------------------------------------
B:-------------------------------------------------------------------------
G:---------|---------------------------------------------------------------
D:---------|--------------------6-7-9-7-6----------------------------------
A:-2/13\2/---7h9-9-9-9-9--7h9-9-----------9-7-7h9-9-9-9-9--7h9-9-7---------
E:-----------------------------------------------------------------9-8-7~--
. . . . . . . . . . .
e:------------------------------------------------------------------
B:------------------------------------------------------------------
G:----------------------------------------------------------------|- repeat three
D:--------------------6-7-9-7-6----------------------7p6---9p7-6--|- times
A:-7h9-9-9-9-9--7h9-9-----------9-7-7h9-9-9-9-9--7h9-----9----------
E:------------------------------------------------------------------


guit 2
listen when guit 2 enters
p.m . . . . . . . . . . . . .
e:---------------------------------------------------------
B:---------------------------------------------------------
G:-----------------2-4-------------------2------------2-4--
D:-4-4--4-4---4-4--2-4-------------------2------------2-4--
A:-4-4--4-4---4-4--0-2-------------------0------------0-2--
E:-2-2--2-2---2-2--------2-2-2-2-2-2-2-2----2-2-2-2-2------

p.m. . . . . . . . . . . . . . . . . . . . . . . . . .
e:----------------------------------------------------------------------
B:----------------------------------------------------------------------
G:-----------------2------------2-4-------------------2------------2-4--
D:-----------------2------------2-4-------------------2------------2-4--
A:-----------------0------------0-2-------------------0------------0-2--
E:-2-2-2-2-2-2-2-2----2-2-2-2-2-------2-2-2-2-2-2-2-2----2-2-2-2-2------



Verse:

Princess of lust..

p.m. . . . . . . . . . . . . . . . . . . . . . . . . . . . . . . . . . . . .
e:--------------------------------------------------------------------------------------
B:--------------------------------------------------------------------------------------
G:--------------------------------------------------------------------------------------
D:-------------------------------------------------------------------------------------- x2
A:---------------------------------------------5-5-5--5-5-5-5-5-5-5--4-4-4--4-4-4-4--2--
E:-2-2-2--2-2-2-2-2-2-2--2-2-2--2-2-2-2-2-2-2----------------------------------------0--


An Aphrodite..

p.m. . . . . . . . . . . . . . . . . . . . . . . . . . . . . . . . . . . . .
e:--------------------------------------------------------------------------------------
B:--------------------------------------------------------------------------------------
G:--------------------------------------------------------------------------------------
D:-------------------------------------------------------------------------------------- x2
A:---------------------------------------------5-5-5--5-5-5-5-5-5-5--4-4-4--4-4-4-4--2--
E:-2-2-2--2-2-2-2-2-2-2--2-2-2--2-2-2-2-2-2-2----------------------------------------0--


Licks:

guit 1
p.m. .
e:----------------------------------------2-----5-7-9--9-7-5-4------
B:-----------------------2-3-5--5-3-2--------------------------5-2--
G:-6---6-4-2-1--2---------------------4-----------------------------
D:----------------2-2-2-----------------4---------------------------
A:------------------------------------------------------------------
E:------------------------------------------------------------------

guit 2
p.m. .
e:------------------------------------------5-------------------------
B:-----------------------7-9-10--10-9-7-5---------7-9-10--10-9-7-5----
G:-6---6-4-2-1--2-------------------------6------------------------6--
D:----------------2-2-2-----------------------------------------------
A:--------------------------------------------------------------------
E:--------------------------------------------------------------------


Verse:

Naked limbs reflecting from the moon..

p.m. . . . . . . . . . . . . . . . . . . . . . . . . . . . . . . . . . . . .
e:--------------------------------------------------------------------------------------
B:--------------------------------------------------------------------------------------
G:--------------------------------------------------------------------------------------
D:-------------------------------------------------------------------------------------- x2
A:---------------------------------------------5-5-5--5-5-5-5-5-5-5--4-4-4--4-4-4-4--2--
E:-2-2-2--2-2-2-2-2-2-2--2-2-2--2-2-2-2-2-2-2----------------------------------------0--


An aphrodite..

p.m. . . . . . . . . . . . . . . . . . . . . . . . . . . . . . . . . . . . .
e:--------------------------------------------------------------------------------------
B:--------------------------------------------------------------------------------------
G:--------------------------------------------------------------------------------------
D:-------------------------------------------------------------------------------------- x2
A:---------------------------------------------5-5-5--5-5-5-5-5-5-5--4-4-4--4-4-4-4--2--
E:-2-2-2--2-2-2-2-2-2-2--2-2-2--2-2-2-2-2-2-2----------------------------------------0--


Licks:

guit 1
p.m. .
e:----------------------------------------2-----5-7-9--9-7-5-4------
B:-----------------------2-3-5--5-3-2--------------------------5-2--
G:-6---6-4-2-1--2---------------------4-----------------------------
D:----------------2-2-2-----------------4---------------------------
A:------------------------------------------------------------------
E:------------------------------------------------------------------

guit 2
p.m. .
e:------------------------------------------5-------------------------
B:-----------------------7-9-10--10-9-7-5---------7-9-10--10-9-7-5----
G:-6---6-4-2-1--2-------------------------6------------------------6--
D:----------------2-2-2-----------------------------------------------
A:--------------------------------------------------------------------
E:--------------------------------------------------------------------



Riff:

p.m. . . . . . . . . . . . .
e:-----------------------------------
B:-----------------------------------
G:-----------------------------------
D:-----------------2------------2-4-- x2
A:-----------------0------------0-2--
E:-0-2-0-2-0-2-0-2----0-2-0-2-0------


"Intro Riff"
p.m . . . . . . . . . . .
e:-----------------------------------------------------------------
B:-----------------------------------------------------------------
G:----------------------3-4-6-4-3----------------------------------
D:---4h6-6-6-6-6--4h6-6-----------6-4-4h6-6-6-6-6--4h6-6-4---------
A:---------------------------------------------------------6-5-4~--
E:-\---------------------------------------------------------------

. . . . . . . . . . .
e:----------------------------------------------------------------
B:----------------------------------------------------------------
G:--------------------3-4-6-4-3----------------------3p4---6p4-3--
D:-4h6-6-6-6-6--4h6-6-----------6-4-4h6-6-6-6-6--4h6-----6--------
A:----------------------------------------------------------------
E:----------------------------------------------------------------



Oh, oh oh...

Bass + strings first..


Listen when guitar enters

p.m . . . . . . . . . . . . . . . . . . . .
e:----------------------------------------------------
B:----------------------------------------------------
G:------*------------------------------------------*--
D:------*------------------------------------------*--
A:----------------------------------------------------
E:-/12\--0-0-0--0-0-0-0-0-0-0--0-0-0--0-0-0-0-0-0-0---

p.m. . . . . . . . . . . . . . . . . . . .
e:---------------------------------------------
B:---------------------------------------------
G:---------------------------------------------
D:---------------------------------------------
A:-0-0-0--0-0-0-0-0-0-0--0-0-0--0-0-0-0-0-0-0--
E:---------------------------------------------

p.m . . . . . . . . . . . . . . . . . . . .
e:------------------------------------------------------
B:------------------------------------------------------
G:-----------------------listen for right rhythm here..-
D:------------------------------------------------------
A:------------------------------------------------------
E:-0-0-0--0-0-0-0-0-0-0--0-0-0--0-0-0-0-0-0-0-----------

p.m . . . . . . . . . . . . . . . . . . . . . . . . . . . .
e:---------------------------------------------------------------------------------------
B:---------------------------------------------------------------------------------------
G:---------------------------------------------------------------------------------------
D:-6-----6-----6-----6-----6-----6-----6-----6--2-----2-----2-----2-----2-----2----------
A:-4-4-4-4-4-4-4-4-4-4-4-4-4-4-4-4-4-4-4-4-4-4--0-0-0-0-0-0-0-0-0-0-0-0-0-0-0-0-0-0-0-2--
E:---------------------------------------------------------------------------------------

. . . . . . . . . . . . . .
e:---------------------------------------------------------
B:---------------------------------------------------------
G:---------------------------------------------------------
D:-6-----6-----6-----6-----6-----6-----6-----6--7--9--11---
A:-4-4-4-4-4-4-4-4-4-4-4-4-4-4-4-4-4-4-4-4-4-4--5--7--9----
E:---------------------------------------------------------


p.m. . . . . . . . . . . . . . . . . . . . . . . . . . . . . . . . . .
e:--------------------------------------------------------------------------------
B:-----------------------------------------------------------------------------5-- not sure about
G:-----------------------------------------------------------------------------4-- this chord...
D:-----------------------------------------------------------------------------2-- (may be some
A:-------------------------------------------------------------------------------- wha-wha effect..)
E:-0-0-0--0-0-0-0-0-0-0--0-0-0--0-0-0-0-0-0-0--0-0-0--0-0-0-0-0-0-0--0--0-0-0-----


p.m. . . . . . . . . . . . . . . . . . . .
e:--------------------------------------------------
B:--------------------------------------------------
G:--*--------------------------------------------*--
D:--*--------------------------------------------*--
A:--------------------------------------------------
E:----0-0-0--0-0-0-0-0-0-0--0-0-0--0-0-0-0-0-0-0----


p.m. . . . . . . . . . . . . . . . . . . . . . . . . . . . . . . . . . . . . . . .
e:----------------------------------------------------------------------------------------------
B:----------------------------------------------------------------------------------------------
G:--*----------------------------------------------------------------------------------------*--
D:--*----------------------------------------------------------------------------------------*--
A:----4-4-4--4-4-4-4-4-4-4--4-4-4--4-4-4-4-4-4-4--0-0-0--0-0-0-0-0-0-0--0-0-0--0-0-0-0-0-0-0----
E:----------------------------------------------------------------------------------------------


e:----------------------------
B:----------------------------
G:--------6----2----6----2----
D:-2------6----2----6----2---- x2
A:-2------4----0----4----0----
E:-0--------------------------

fade out..





Tablature explanation:
/ = slide up
\ = slide down
h = hammer on
p = pull off
p.m = palm muted
~ = vibrato
--*---*--
--*---*-- = repeat twice



www.stratotabs.cjb.net
Рубрики:  tabs

TAB

Дневник

Среда, 06 Июля 2005 г. 23:34 + в цитатник
Ada_Demina (Nightwish_fans) все записи автора The Pharao Sails To Orion
by Nightwish

from Oceanborn
---------------------------------



tabbed by: Fredrik Olsson
e-mail: fredrik.olsson@mbox329.swipnet.se


tuned in E (normal tuning)



Intro:

keys..

D G# D G# A G


guitar enters

e:-------------------------------------------------------
B:-------------------------------------------------------
G:-------------------------------------------------------
D:-7-7--7-7---7-7--7-7------7-7--7-7---7-7--7-7--------8- Thou shalt
A:-5-5--5-5---5-5--5-5--6---5-5--5-5---5-5--5-5--5-6-5-6-
E:----------------------4------------------------3-4-3---

die! oooohhhhhhh......
p.m . . . . . . . . . . . . . . . . . . . .
e:-----------------------------------------------------
B:-----------------------------------------------------
G:-----------------------------------------------------
D:-7---------7---------7-----7---------7---------7----- x2
A:-5-5-5-5-5-5-5-5-5-5-5-5-5-5-5-5-5-5-5-5-5-5-5-5-5-5-
E:-----------------------------------------------------


pianolicks

pm . . . . . .
e:-------------------------------------------------------------
B:-------------------------------------------------------------
G:-------------------------------------------------------------
D:------------------7-------3-5-7------------------7-------3-5-
A:-5*---------7--5--5-5*----1-3-5-5*---------7--5--5-5*----1-3-
E:------4*----5--3---------------------4*----5--3--------------


pre-verseriff:

e:------------------------------------------
B:------------------------------------------
G:------------------------------------------
D:-7-7-8-7-5-7-8-5-7--7-7-7-8-7-5-10-10-8-7-
A:-5-5-6-5-3-5-6-3-5--5-5-5-6-5-3-8--8--6-5-
E:------------------------------------------


Verseriff:

e:-------------------------------------------------------------------------
B:-------------------------------------------------------------------------
G:-------------------------------------------------------------------------
D:-7-8-7-5-7-8-5-7--7-8-7-7---4-----4-4-5-4-2-2h4-4-4/5-5--4-5-4-2-7-7-5-4-
A:-5-6-5-3-5-6-3-5--5-6-5-5-6---3-5-2-2-3-2-0-0h2-2-2/3-3--2-3-2-0-5-5-3-2-
E:-------------------------------------------------------------------------

e:---------------------------------------------------------------------------
B:---------------------------------------------------------------------------
G:---------------------------------------------------------------------------
D:-7-8-7-5-7-8-5-7---7-8-7-5-10-10-8-7--4-5-4-2-2h4-4-4/5-5--4-5-4-2-7-7-5-4-
A:-5-6-5-3-5-6-3-5---5-6-5-3-8--8--6-5--2-3-2-0-0h2-2-2/3-3--2-3-2-0-5-5-3-2-
E:---------------------------------------------------------------------------

pianolicks

pm . . . . . .
e:-------------------------------------------------------------
B:-------------------------------------------------------------
G:-------------------------------------------------------------
D:------------------7-------3-5-7------------------7-------3-5-
A:-5*---------7--5--5-5*----1-3-5-5*---------7--5--5-5*----1-3-
E:------4*----5--3---------------------4*----5--3--------------


Verseriff:

e:-------------------------------------------------------------------------
B:-------------------------------------------------------------------------
G:-------------------------------------------------------------------------
D:-7-8-7-5-7-8-5-7--7-8-7-7---4-----4-4-5-4-2-2h4-4-4/5-5--4-5-4-2-7-7-5-4-
A:-5-6-5-3-5-6-3-5--5-6-5-5-6---3-5-2-2-3-2-0-0h2-2-2/3-3--2-3-2-0-5-5-3-2-
E:-------------------------------------------------------------------------

e:---------------------------------------------------------------------------
B:---------------------------------------------------------------------------
G:---------------------------------------------------------------------------
D:-7-8-7-5-7-8-5-7---7-8-7-5-10-10-8-7--4-5-4-2-2h4-4-4/5-5--4-5-4-2-7-7-5-4-
A:-5-6-5-3-5-6-3-5---5-6-5-3-8--8--6-5--2-3-2-0-0h2-2-2/3-3--2-3-2-0-5-5-3-2-
E:---------------------------------------------------------------------------


piano-before-chorus part

e:-------------------------- --------------------------------------
B:-------------------------- --------------------------------------
G:-*---------------------*-- --------------------------------------
D:-*--7--7-8-5-7--7-7-5--*-- -7--7-8-5-7--7-7-5--7--7-8-5-7--7-7-5-
A:----5--5-6-3-5--5-5-3----- -5--5-6-3-5--5-5-3--5--5-6-3-5--5-5-3-
E:-------------------------- --------------------------------------


Chorus:

..face to me..
p.m . . . . . .
e:--------------------------------------------------------------------------------------------------------------
B:--------------------------------------------------------------------------------------------------------------
G:--------------------------------------------------------------------------------------------------------------
D:-7-------7------5--7-----------7--5--3-----------5-----7-------------7-5--3-----------7--7-5-3-----------5----
A:-5---7---5---3--3--5---5---7---5--3--1-1*--3-----3-3*--5-5-5-5-5-5-5-5-3--1---3---5---5--5-3-1-1*--3-----3-3*-
E:-----5-------1---------3---5---------------1-1*-------------------------------1---3----------------1-1*-------

p.m . . . . . .
e:-------------------------------------
B:-------------------------------------
G:-------------------------------------
D:--7-------------7-5-3-----------7----
A:--5-5-5-5-5-5-5-5-3-1---3---5---5----
E:------------------------1---3--------



e:--------------------------------
B:--------------------------------
G:--------------------------------
D:-5-5-5-----3-3-2-2-----5-5-3-5-- x2
A:-3-3-3-4-4---------4-4-3-3-1-3--
E:--------------------------------



"Open thy veins for my venom.."

e:---------------------
B:---------------------
G:---------------------
D:------3---------3----
A:-5----1----5----1----
E:-3---------3---------



e:--------------------------------
B:--------------------------------
G:--------------------------------
D:-5-5-5-----3-3-2-2-----5-5-3-5-- x2
A:-3-3-3-4-4---------4-4-3-3-1-3--
E:--------------------------------


flute solo:

e:---------------------------
B:---------------------------
G:---------------------------
D:-2----3---5---2----5---7--- x2
A:-2----3---5---2----5---7---
E:-0----1---3---0----3---5---



Break:

e:--------------------------------------------------------------------------------------
B:--------------------------------------------------------------------------------------
G:--------------------------------------------------------------------------------------
D:-7---3-3---5-5-7\---3-3--5--7---3-3---5-5-7--3-3-5---7---3---5---3--2--7---5-------5--
A:-5---1-1---3-3-5\---1-1--3--5---1-1---3-3-5--1-1-3---5---1---3---1--0--5---3--5--3-3--
E:------------------------------------------------------------------------------3--1----

Ohh...

e:------------------------------------------------------------------------------------------------------
B:------------------------------------------------------------------------------------------------------
G:------------------------------------------------------------------------------------------------------
D:-7--------7--------7--------7--------3--------3--------3--------3--------5--------5--------5--------5-
A:-5-(5)(5)-5-(5)(5)-5-(5)(5)-5-(0)(0)-1-(1)(1)-1-(1)(1)-1-(1)(1)-1-(1)(1)-3-(3)(3)-3-(3)(3)-3-(3)(3)-3-
E:------------------------------------------------------------------------------------------------------

e:-------------------------------------------------------------------------------------------------------------
B:-------------------------------------------------------------------------------------------------------------
G:-------------------------------------------------------------------------------------------------------------
D:--------3--------3--------2--------2--------7--------7--------7--------7--------5--------5--------5--------5-
A:-(0)(0)-1-(0)(0)-1-(0)(0)-0-(0)(0)-0-(0)(0)-5-(5)(5)-5-(5)(5)-5-(5)(5)-5-(0)(0)-3-(3)(3)-3-(3)(3)-3-(3)(3)-3-
E:-------------------------------------------------------------------------------------------------------------

e:--------------------------------------------------------------------------------------------
B:--------------------------------------------------------------------------------------------
G:--------------------------------------------------------------------------------------------
D:--------------------------------------------------------------5--------5-7----------------7-
A:-(3)(3)-5--------5--------5--------5--------3--------3--------3-(3)(3)-3-5--------------7-5-
E:--------3-(3)(3)-3-(3)(3)-3-(3)(3)-3-(0)(0)-1-(1)(1)-1-(1)(1)---------------------------5---

guit 1

not so sure about this..

more than one pic/tone (don't know how many, it's very hard to count them..
you hear what will sound pretty good..)
e:-----------------------------------------------------------
B:-------------12-13-14-14-13-13-12--------------------------
G:----11-12-14----------------------14-12-11-----------------
D:-12-----------------------------------------14-12-----12---
A:---------------------------------------------------12------
E:-----------------------------------------------------------


Chorus:
p.m . . . .
e:-----------------------------------------------------------------------
B:-----------------------------------------------------------------------
G:-----------------------------------------------------------------------
D:-3-------5---7--7-5-3-----------7---------7-5-3-------5---7---7-5-3--2-
A:-1---3---3---5--5-3-1---3---5---5-5-5-5-5-5-3-1---3---3---5---5-3-1--0-
E:-----1------------------1---3---------------------1--------------------


Ending:
p.m. . . . . . . . . . . . . . . . . . . . . . . . . . . . . . . . .
e:-------------------------------------------------------------------------------
B:-------------------------------------------------------------------------------
G:-------------------------------------------------------------------------------
D:-----------------------------------------------------------------------7-------
A:-----------------------------------1--1-1-1-1--1-1-1-3-3-3-3-3-3-3-4-4-5-------
E:-3--3-3-3-3--3-3-3-5-5-5-5-5-5-5-5---------------------------------------------

e:----------------------------
B:----------------------------
G:----------------------------
D:-5--3-----5------7--------7-
A:-3--1-----3------5--------5-
E:----------------------------

I won't tab this last solo..
It's to hard to hear what he plays all the time,
besides, you learn more on improvising your "own" solos.. :)
Good Luck!


Tablature explanation:
p.m = palm muted
* = contine picking
h = hammer on
-*---*--
-*---*-- = play twice
\ = slide down
(5) = ghost note


www.stratotabs.cjb.net
Рубрики:  tabs

TAB

Дневник

Среда, 06 Июля 2005 г. 23:32 + в цитатник
Ada_Demina (Nightwish_fans) все записи автора The Riddler
Nightwish

from Oceanborn
------------------------



tabbed by: Fredrik Olsson
e-mail: fredrik.olsson@mbox329.swipnet.se


tuned in E (regular tuning)



Intro:

e:-------------------------------------------------------------
B:-------------------------------------------------------------
G:----------7-----5-----------------------7-----5--------5--4--
D:-7----2---7--5--5----5---3--2--7----2---7--5--5----5---3--2--
A:-7----2---5--5--3----5---3--2--7----2---5--5--3----5---------
E:-5----0------3-------3---1--0--5----0------3-------3---------


verse:

Not that much guitars here.. ;)


Bridge:

pm. . . . . . . . . . . . . . . . . . . . . . . .
e:-----------------------------------------------------------------------------------------------
B:-----------------------------------------------------------------------------------------------
G:-----------------------------------------------------------------------------------------------
D:--------------------------------------------------5-----5---5-----5-----5---5------7-------7---
A:-0-0-8\--5-5---7--7----7---7-----7-----7---7--3-3-3-3-3-3-3-3-3-3-3-3-3-3-3-3--5-5-5-5-5-5-5-5-
E:---------3-3---5--5--5-5-5-5-5-5-5-5-5-5-5-5---------------------------------------------------
. . . . . . . . . . . . .
e:-------------------------------------------------
B:-------------------------------------------------
G:-------------------------------------------------
D:-------------------------------------------------
A:-----3-3-----5-5------7-----7---7-----7---7---7--
E:-1-1-1-1-3-3-3-3--5-5-5-5-5-5-5-5-5-5-5-5-5-5-5--


Lead part:

guit1 b
e:------------------------------------------------------------------------------------------------
B:-5--5/8-8--8-10-8--5\3-3---/10--10-8-6-5-----------3-5--/8--8-h10-10--8-7----10-12-12--12p10----
G:------------------------------------------2--2-4-5-----------------------7-------------------12-
D:------------------------------------------------------------------------------------------------
A:------------------------------------------------------------------------------------------------
E:------------------------------------------------------------------------------------------------
br
e:-----------------~-----------------
B:----------------A.H--12-12-10-A.H--
G:--------------7--9-------------9---
D:-----77-99-10----------------------
A:-12\-------------------------------
E:-----------------------------------

guit2
pm . . . . . . . . .
e:--------------------------------------------------------
B:--------------------------------------------------------
G:-5---------7---------5----7-----------------------------
D:-5----5----7----7----5----7----3---5--------------------
A:-3----5----5----7----3----5----3---5--2-2-2-2-2-2-2-2-2-
E:------3---------5--------------1---3--0-0-0-0-0-0-0-0-0-




Chorus:
pm . . . . . . . . . . . . . . . .
e:--------------------------------------------------------------------------------------------------
B:--------------------------------------------------------------------------------------------------
G:--------------------------------------------------------------------------------------------------
D:-----7-------3-------2----5---2---------------------------------------------------------------5-5-
A:-----7-------3-------2----5---2-------7-----7---7-----7---7-7-5-5-----3-----3---3-----3---3-3-3-3-
E:-12\-5----3--1----3--0----3---0---5-5-5-5-5-5-5-5-5-5-5-5-5-5-3-3-1-1-1-1-1-1-1-1-1-1-1-1-1-1-----

. . . . . . . . .
e:----------------------------------------
B:----------------------------------------
G:---------------------------------5------
D:-----7-----7---7-----7---7-7-7---5--5---
A:-5-5-5-5-5-5-5-5-5-5-5-5-5-5-5-0-3--5---
E:------------------------------------3---



Intro thing again
e:-------------------------------
B:-------------------------------
G:----------7-----5--------------
D:-7----2---7--5--5----5---3--2--
A:-7----2---5--5--3----5---3--2--
E:-5----0------3-------3---1--0--



verse:

Not that much guitars here either.. :)


Bridge:

pm. . . . . . . . . . . . . . . . . . . . . . . .
e:-----------------------------------------------------------------------------------------------
B:-----------------------------------------------------------------------------------------------
G:-----------------------------------------------------------------------------------------------
D:--------------------------------------------------5-----5---5-----5-----5---5------7-------7---
A:-0-0-8\--5-5---7--7----7---7-----7-----7---7--3-3-3-3-3-3-3-3-3-3-3-3-3-3-3-3--5-5-5-5-5-5-5-5-
E:---------3-3---5--5--5-5-5-5-5-5-5-5-5-5-5-5---------------------------------------------------
. . . . . . . . . . . . .
e:-------------------------------------------------
B:-------------------------------------------------
G:-------------------------------------------------
D:-------------------------------------------------
A:-----3-3-----5-5------7-----7---7-----7---7---7--
E:-1-1-1-1-3-3-3-3--5-5-5-5-5-5-5-5-5-5-5-5-5-5-5--



Lead part:

guit1 b
e:------------------------------------------------------------------------------------------------
B:-5--5/8-8--8-10-8--5\3-3---/10--10-8-6-5-----------3-5--/8--8-h10-10--8-7----10-12-12--12p10----
G:------------------------------------------2--2-4-5-----------------------7-------------------12-
D:------------------------------------------------------------------------------------------------
A:------------------------------------------------------------------------------------------------
E:------------------------------------------------------------------------------------------------
br
e:-----------------~-----------------
B:----------------A.H--12-12-10-A.H--
G:--------------7--9-------------9---
D:-----77-99-10----------------------
A:-12\-------------------------------
E:-----------------------------------

guit2
pm . . . . . . . . .
e:--------------------------------------------------------
B:--------------------------------------------------------
G:-5---------7---------5----7-----------------------------
D:-5----5----7----7----5----7----3---5--------------------
A:-3----5----5----7----3----5----3---5--2-2-2-2-2-2-2-2-2-
E:------3---------5--------------1---3--0-0-0-0-0-0-0-0-0-



Chorus:
pm . . . . . . . . . . . . . . . .
e:--------------------------------------------------------------------------------------------------
B:--------------------------------------------------------------------------------------------------
G:--------------------------------------------------------------------------------------------------
D:-----7-------3-------2----5---2---------------------------------------------------------------5-5-
A:-----7-------3-------2----5---2-------7-----7---7-----7---7-7-5-5-----3-----3---3-----3---3-3-3-3-
E:-12\-5----3--1----3--0----3---0---5-5-5-5-5-5-5-5-5-5-5-5-5-5-3-3-1-1-1-1-1-1-1-1-1-1-1-1-1-1-----

. . . . . . . . .
e:----------------------------------------
B:----------------------------------------
G:---------------------------------5------
D:-----7-----7---7-----7---7-7-7---5--5---
A:-5-5-5-5-5-5-5-5-5-5-5-5-5-5-5-0-3--5---
E:------------------------------------3---



Intro thing again
e:------------------------------------
B:------------------------------------
G:----------7-----5-------------------
D:-7----2---7--5--5----5---3--2---2---
A:-7----2---5--5--3----5---3--2---0---
E:-5----0------3-------3---1--0-------



Soft part:

guitars enter after a while.. (you'll hear it)

guit1
e:-8-/7-3--8-8---10--8-7-5--8-10-12-10-8-13-12-10--------------------13-------13-15----13-15-17-13-/20-----------
B:-------------------------------------------------13-15-17-13-15-17----15-17-------17------------------17-15-13-
G:---------------------------------------------------------------------------------------------------------------
D:---------------------------------------------------------------------------------------------------------------
A:---------------------------------------------------------------------------------------------------------------
E:---------------------------------------------------------------------------------------------------------------

guit2
e:--------------------------5-7-8-7-5-10-8-7--------------------10-------10-12----10-12-13-10-15-----------
B:-10-/8-5--8--10--8-7-\3---------------------10-12-13-10-12-13----12-13-------13-----------------13-12-10-
G:---------------------------------------------------------------------------------------------------------
D:---------------------------------------------------------------------------------------------------------
A:---------------------------------------------------------------------------------------------------------
E:---------------------------------------------------------------------------------------------------------

guit3
pm . . . . . . . .
e:--------------------------------------
B:--------------------------------------
G:-in the end---------------------------
D:----------------------------------2---
A:----------------------------------2---
E:--------------12\-0-0-0-0-0-0-0-0-0---



Chorus:
pm . . . . . . . . . . . . . . . .
e:-----------------------------------------------------------------------------------------------
B:-----------------------------------------------------------------------------------------------
G:-----------------------------------------------------------------------------------------------
D:--7-------3-------2----5---2---------------------------------------------------------------5-5-
A:--7-------3-------2----5---2-------7-----7---7-----7---7-7-5-5-----3-----3---3-----3---3-3-3-3-
E:--5----3--1----3--0----3---0---5-5-5-5-5-5-5-5-5-5-5-5-5-5-3-3-1-1-1-1-1-1-1-1-1-1-1-1-1-1-----

. . . . . . . . . .
e:----------------------------------------
B:----------------------------------------
G:---------------------------------5------
D:-----7-----7---7-----7-----7---7-5--5---
A:-5-5-5-5-5-5-5-5-5-5-5-5-5-5-5-5-3--5---
E:------------------------------------3---

pm . . . . . . . . . . . . . . . .
e:-----------------------------------------------------------------------------------------------
B:-----------------------------------------------------------------------------------------------
G:-----------------------------------------------------------------------------------------------
D:--7-------3-------2----5---2---------------------------------------------------------------5-5-
A:--7-------3-------2----5---2-------7-----7---7-----7---7-7-5-5-----3-----3---3-----3---3-3-3-3-
E:--5----3--1----3--0----3---0---5-5-5-5-5-5-5-5-5-5-5-5-5-5-3-3-1-1-1-1-1-1-1-1-1-1-1-1-1-1-----

. . . . . . . . . .
e:--------------------------------------------
B:--------------------------------------------
G:---------------------------------5----------
D:-----7-----7---7-----7-----7---7-5--5---7---
A:-5-5-5-5-5-5-5-5-5-5-5-5-5-5-5-5-3--5---7---
E:------------------------------------3---5---



Tablature explanation:
pm. = palm muted
\ = slide down
/ = slide up
h = hammer on
b = bend
br = bend and release
A.H = artificial harmonic
~ = hit your fixed whammybar..




www.stratotabs.cjb.net
Рубрики:  tabs

TAB

Дневник

Среда, 06 Июля 2005 г. 23:25 + в цитатник
Ada_Demina (Nightwish_fans) все записи автора Nightwish: Sacrament Of Wilderness
tab by Mikko Mattila (anoli@sci.fi)


timing means almost nothing on this tab.
standard tuning (EADGBE)




Riff A1: dive w/bar
|---------------------------------------------------|
|---------------------------------------------------|
|--------------7-----------------2-4----------------|
|-4-4-4-4-4----7----4-4-4-4-4----2-4--4-4-4-4-4-----|
|-4-4-4-4-4----5----4-4-4-4-4----0-2--4-4-4-4-4-----|
|-2-2-2-2-2---------2-2-2-2-2---------2-2-2-2-2--0--|


Riff A2:
|-----------------------------------------------------|
|-----------------------------------------------------|
|-----------------------7-------------------------2-4-|
|-4--------------4------7--2--------------4-------2-4-|
|-4--------------4------5--2--------------4-------0-2-|
|-2-2-2-22-2-2-2-2-2-2-----4-2-2-22-2-2-2-2-2-2-2-----|


|-----------------------------------------------------|
|-----------------------------------------------------|
|-----------------------7-----------------------------|
|-4--------------4------7--4--------------4-----------|
|-4--------------4------5--4--------------4-----xx-xx-|
|-2-2-2-22-2-2-2-2-2-2-----2-2-2-22-2-2-2-2-2-2-xx-xx-|


Riff B1:
2x: 2x:
|-4-2-2-2-5-2-2-2-7-2-2-2-5-2-2-2-|-7-5-5-5-8-5-5-5-10-5-5-5-8-5-5-5-|
|---------------------------------|----------------------------------|
|---------------------------------|----------------------------------|
|---------------------------------|----------------------------------|
|---------------------------------|----------------------------------|
|---------------------------------|----------------------------------|


|-9-7-7-7-10-7-7-7-12-7-7-7-10-7-7-7-|
|------------------------------------|
|------------------------------------|
|------------------------------------|
|------------------------------------|
|------------------------------------|


|-9-10-9-7--------------------------------------------|
|----------10-9-7-6-7-6-------------------------------|
|-----------------------7-6-4-------------------------|
|-----------------------------7-6-4-3-4-3-------------|
|-----------------------------------------5-4-2-------|
|-----------------------------------------------5-4-2-|


Riff B2:
|--------------------------------------------------------------|
|--------------------------------------------------------------|
|--------------------------------------------------------------|
|-4---------------4-----------------4-----------------------2--|
|-4---------------4-----------------------4-----------------2--|
|-2-2-2-22-2-2-22-2-2-2-22-2-2-22-2---2-2---2-2-2-2-2-2-2-2-0--|


Riff C 2x:
|-----------------------------------------------------------|
|-----------------------------------------------------------|
|------------------------------6-7---------------7----------|
|-4---------------4------------6-7---------------7----------|
|-4---------------4------------4-5-5-5-55-5-5-55-5-5-5-5-5--|
|-2-2-2-22-2-2-22-2-2-2-22-2-2------------------------------|


|-----------------------------------------------------------|
|-----------------------------------------------------------|
|-6-4---------------4---------------------------------------|
|-6-4---------------4---------------4------------2----------|
|-4-2-2-2-22-2-2-22-2-2-2-22-2-2-22-4------------2----------|
|-----------------------------------2------------0----------|


Riff B1
Riff C 2x


Chorus:
|---------------------------------------------------------------------------|
|---------------------------------------------------------------------------|
|------------------------------7--------------------------------------------|
|-4----------------------------7--------------------------------------------|
|-4------------------2-4---2-4-5-5-5-5-5...--5h7-7-7-7-7-7--5h7-7-7-7-7-7-7-|
|-2-2-2-2-2...-2-4-5-----5--------------------------------------------------|


|----------------------------------------------------------------------------|
|----------------------------------------------------------------------------|
|------------------------------7---------------------------------------------|
|-4----------------------------7---------------------------------------------|
|-4------------------2-4---2-4-5-5-5-5-5...--7-5-4---4-----------------------|
|-2-2-2-2-2...-2-4-5-----5-------------------------7---7-5-4-5-4-2-0-5-4-2-0-|


|---------------------------------------------------------------------------|
|---------------------------------------------------------------------------|
|------------------------------7--------------------------------------------|
|-4----------------------------7------------------(5)~~---------------------|
|-4------------------2-4---2-4-5-5-5-5-5...--5h7----------------------------|
|-2-2-2-2-2...-2-4-5-----5--------------------------------------------------|


|----------------------------------------------------------------------------|
|----------------------------------------------------------------------------|
|------------------------------7---------------------------------------------|
|-4----------------------------7---------------------------------------------|
|-4------------------2-4---2-4-5-5-5-5-5...--7-5-4---4-----------------------|
|-2-2-2-2-2...-2-4-5-----5-------------------------7---7-5-4-5-4-2-0-5-4-2-0-|


Riff D:
|-----------------------------------------------------|
|-----------------------------------------------------|
|-----------------------7-------------------------2-4-|
|-4--------------4------7--4--------------4-------2-4-|
|-4--------------4------5--4--------------4-------0-2-|
|-2-2-2-22-2-2-2-2-2-2-----2-2-2-22-2-2-2-2-2-2-2-----|


|---------------------------------------------------------|
|---------------------------------------------------------|
|-----------------------7-------------------------2-2-4---|
|-4--------------4------7--2--------------4-----4-2-2-4-2-|
|-4--------------4------5--2--------------4-----4-0-0-2-2-|
|-2-2-2-22-2-2-2-2-2-2-----4-2-2-22-2-2-2-2-2-2-2-------0-|


I won't tab the next part, so you can figure it out yourself.
there's lots of harmonics and stuff...
it ends with this:

|-9-10-9-7--------------------------------------------|
|----------10-9-7-6-7-6-------------------------------|
|-----------------------7-6-4-------------------------|
|-----------------------------7-6-4-3-4-3-------------|
|-----------------------------------------5-4-2-------|
|-----------------------------------------------5-4-2-|


Riff E 2x: (* there is some harmonic here)
|-----------------------------|
|-----------------------------|
|-----------------------------|
|-7---------6-7-----7--9-7-11-|
|-9-9-9-9-9-7-9-9-9-9-11-9-12-|
|---------------------------*-|


|---------------------------------------|
|---------------------------------------|
|-------------------------------9-11-14-|
|-7---------6-7---------9-11-12---------|
|-9-9-9-9-9-7-9-9-11-12-----------------|
|---------------------------------------|


Riff F1 2x:
|------------------------------|
|------------------------------|
|------2----7---------2----4---|
|-4----2----7----4----2----4---|
|-4----0----5----4----0----2---|
|-2--------------2-------------|


Riff F2:
|-------------------------|
|-------------------------|
|-------------------------|
|----------------2--2--2--|
|-4-4-4---4-4-4--0--0--0--|
|-2-2-2---2-2-2-----------|


Then comes the keyboard solo
during that guitar plays Riff E 2 times.

Play only the first two patterns of the chorus
and then:
|---------------|
|---------------|
|-2---------7---|
|-2----3----7---|
|-0----3----5---|
|------1--------|


then the end is just some fast lick from the Riff B scale.


h - hammer on
p - pull off
b - bend string up
r - release bend
/ - slide up
\ - slide down
~ - vibrato
t - right hand tap
x - play 'note' with heavy damping
(5)- harmonics
Рубрики:  tabs

TAB

Дневник

Среда, 06 Июля 2005 г. 23:24 + в цитатник
Ada_Demina (Nightwish_fans) все записи автора She Is My Sin
by Nightwish
from Wishmaster
--------------------



Tabbed by: Fredrik Olsson
e-mail: fredrik.olsson@mbox329.swipnet.se


regular tuning (E)




Intro:

e:-------------------------------------------------
B:-------------------------------------------------
G:---------------------3-5------------3------------
D:-5-5-5---3-3-5-5-5---1-3-5-5-5----5-1-3------3---
A:-3-3-3---1-1-3-3-3-------3-3-3--3-3---1-5-6--1---
E:--------------------------------1-------3-4------


Riff:

p.m . . . . . . . . . . . . . . . . . . . . . . .
e:------------------------------------------------------------------------------------------------------
B:------------------------------------------------------------------------------------------------------
G:----------------------------------------------------------------------------3-------------------------
D:-5-----5-6-----6-5-----5-3---3----5-----5-6-----6-5-----5-5---6p5p3--5----5-1-3-------------------3---
A:---3-3-----3-6-----3-6-----1---1----3-3-----3-6-----3-6-----3--------3--3-3---1-5-6-6-6-6-6-6-6-6-1---
E:------------------------------------------------------------------------1-------3-4-4-4-4-4-4-4-4-----

p.m . . . . . . . . . . . . . . .
e:-----------------------------------------------------------------------------------------
B:-----------------------------------------------------------------------------------------
G:----------------------------------------------------------------------------3------------
D:-5-----5-6-----6-5-----5-3---3----5-----5-6-----6-5-----5-5---6p5p3--5----5-1-3----------
A:---3-3-----3-6-----3-6-----1---1----3-3-----3-6-----3-6-----3--------3--3-3---1-5--6--8--
E:------------------------------------------------------------------------1-------3--4--6--



Verse:


Take heed, dear heart..

p.m . . . . . . .
e:----------------------------------------------------------------------
B:----------------------------------------------------------------------
G:------listen when guitar enters..-------------------------------------
D:-7--------------------------------------------------------------------
A:-7----------------------------------7-----7-8-5---8-7-----7-5---5-----
E:-5------------------------------------5-5-------5-----5-8-----3---3~--

Dressed as one
A wolf will betray a lamb

e:------------
B:------------
G:------------
D:--3---3/5-5-
A:-\3---3/5-5-
E:-\1---1/3-3-


Lead astray the gazers..

p.m . . . . . . . . . . . . . . . . . . . . . . . . . . .
e:---------------------------------------------------------------------------------------------
B:---------------------------------------------------------------------------------------------
G:---------------------------------------------------------------------------------------------
D:-------------------------------------------------------5-------------------------------------
A:-7-----7-7-7-----7-7-7-----7-7-7-----7-7-7--7-7-7--2---3--5--7-----7-8-----8-7-----7-5---5---
E:-5--5--5-5-5--5--5-5-5--5--5-5-5--5--5-5-5--5-5-5--0------3----5-5-----5-8-----5-8-----3---3-


In the meadow of sinful thoughts..

p.m . . . . . . . . . . . . . . . . . . .
e:----------------------------------------------------------------------------
B:----------------------------------------------------------------------------
G:----------------------------------------------------------------------------
D:---------------------------------------------------7-------------7---5------
A:-7-----7-7-7-----7-7-7-----7-7-7-----7-7-7--7-7-7--5---7--5--7---5-7-3-5-2--
E:-5--5--5-5-5--5--5-5-5--5--5-5-5--5--5-5-5--5-5-5------5--3--5-----5---3-0--


To paradise..

p.m . . . . . . .
e:----------------------------------
B:----------------------------------
G:-7--------------------------------
D:-7----7----3----------------------
A:-5----7----3----2-2--2-2-2--2-2---
E:------5----1----0-0--0-0-0--0-0---



Chorus:

A sin for him..

e:---------------------------------------------------
B:---------------------------------------------------
G:-----------------7-------------------------7-------
D:-7---5---3---7---7---5--5--7---5---3---7---7---5---
A:-7---5---3---7---5---5--5--7---5---3---7---5---5---
E:-5---3---1---5-------3--3--5---3---1---5-------3---



Riff:

e:------------------------------------------------------------------------------------------
B:------------------------------------------------------------------------------------------
G:------------------------------------------------------------------------------------------
D:------------------------------------------------------------------------7---5-------------
A:-7-----7-8-----8-7-----7-5---5----7-----7-8-----8-7-----7-7---8p7p5--7--5-7-3-5-2-3---5---
E:---5-5-----5-8-----5-8-----3---3----5-5-----5-8-----5-8-----5--------5----5---3-0-1---3---




Verse:

I am the Fallen..

p.m . . . . . . . . . . . . . . . . . . . . . . . . . . .
e:---------------------------------------------------------------------------------------------
B:---------------------------------------------------------------------------------------------
G:---------------------------------------------------------------------------------------------
D:-------------------------------------------------------5-------------------------------------
A:-7-----7-7-7-----7-7-7-----7-7-7-----7-7-7--7-7-7--2---3--5--7-----7-8-----8-7-----7-5---5---
E:-5--5--5-5-5--5--5-5-5--5--5-5-5--5--5-5-5--5-5-5--0------3----5-5-----5-8-----5-8-----3---3-


Lust is not as creative..

p.m . . . . . . . . . . . . . . . . . . .
e:----------------------------------------------------------------------------
B:----------------------------------------------------------------------------
G:----------------------------------------------------------------------------
D:---------------------------------------------------7-------------7---5------
A:-7-----7-7-7-----7-7-7-----7-7-7-----7-7-7--7-7-7--5---7--5--7---5-7-3-5-2--
E:-5--5--5-5-5--5--5-5-5--5--5-5-5--5--5-5-5--5-5-5------5--3--5-----5---3-0--


To paradise..

p.m . . . . . . .
e:----------------------------------
B:----------------------------------
G:-7--------------------------------
D:-7----7----3----------------------
A:-5----7----3----2-2--2-2-2--2-2---
E:------5----1----0-0--0-0-0--0-0---



Chorus:

A sin for him..

e:---------------------------------------------------
B:---------------------------------------------------
G:-----------------7-------------------------7-------
D:-7---5---3---7---7---5--5--7---5---3---7---7---5---
A:-7---5---3---7---5---5--5--7---5---3---7---5---5---
E:-5---3---1---5-------3--3--5---3---1---5-------3---




Solo riff:

p.m. . .
e:-------------------------------------------8---7~---------------------
B:------------------------------10--------------------------------------
G:----------------------------9----7-9-10-9----9----9~--9\5-5/7-7\4-4h5-
D:------------------5-7-6-/10-------------------------------------------
A:----------------7-----------------------------------------------------
E:-5-5-5--5~--5-5-------------------------------------------------------


guit 1:

p.m . . . . . . . . . . . .
e:------------------------------------------------------------------------------------
B:------------------------------------------------------------------------------------
G:---------4~-----4-5-4-----7-5-4---9-7-5---10-9-7----12---12--10-9-7--5-4--/12~-9A.H-
D:-7~--5-7------7-------7-5-------5-------5--------5----------------------------------
A:------------------------------------------------------------------------------------
E:------------------------------------------------------------------------------------


guit 2: (not so sure about this one.. it's hard to hear..)

p .m . . . . . . . . . . . .
e:------------------------------------------------------------------------------
B:------------------------------------------------------------------------------
G:-------------------------3-------5-4-----7---------9---9--7-5-4------/9~-9A.H-
D:-3~--2-3-5~--3-5-7-5-3-----7-5-------7-----10-9-----------------7-5-----------
A:-----------------------7-------7-------7--------7-----------------------------
E:------------------------------------------------------------------------------





e:-------------------------------------------
B:-------------------------------------------
G:-------------------------------------------
D:-2----2-3----3-5----5-2---2-----7---5------ x2
A:----5------5------5-----5---7-5-5-7-3-5-2--
E:----------------------------5-3---5---3-0--


e:----------------------------------------------------------
B:--------------------------------------------8--6----------
G:----------------------------5-------7-------------8-7A.H--
D:-5----5-6----6-8----8-5---5---6-5-6---6-5-6---------------
A:----8------8------8-----8---------------------------------
E:----------------------------------------------------------

e:-------------------------------------------------------------
B:-------------------------------------------------------------
G:----------------------------5-------7-------5-------4--------
D:-5----5-6----6-8----8-5---5---6-5-6---6-5-6---6-5-6---6-5-3--
A:----8------8------8-----8------------------------------------
E:-------------------------------------------------------------


Bless me
Undress me

e:------------------------------------------------
B:------------------------------------------------
G:------------------------------------------------ (A.H) = play first time
D:-2----2-3----3-5----5-2---2-----7---5----------- x2
A:----5------5------5-----5---7-5-5-7-3(A.H)-5-2--
E:----------------------------5-3---5--------3-0--


p.m. . . . . . . . .
e:----------------------------
B:----------------------------
G:----------------------------
D:----------------------------
A:-3-3-3--3--3--5--5-5-5-7----
E:-1-1-1--1--1--3--3-3-3-5----


A sin for him
Desire within
A burning veil
For the pride to dear for him


A sin for him..

p.m . . . . . . . . . . . . . .
e:----------------------------------------------------------------------
B:----------------------------------------------------------------------
G:-*--------------------------------------------------------------------
D:-*-5-------5-------5-------5-------5-------5-------5-------5--3-------
A:---3--3-3--3--3-3--3--3-3--3--3-3--3--3-3--3--3-3--3--3-3--3--1---6---
E:------------------------------------------------------------------4---

. . . . . . . . . . . . . .
e:----------------------------------------------------------------------------
B:----------------------------------------------------------------------------
G:------------------------------------------------------------5------*--------
D:-5-------5-------5-------5-------5-------5-------5-------5--3---3--*-------- (1A.H) = play first time
A:-3--3-3--3--3-3--3--3-3--3--3-3--3--3-3--3--3-3--3--3-3--3------1----(1A.H)-
E:----------------------------------------------------------------------------


end riff:

p.m . . . . . . . . . .
e:-----------------------------------------------------------
B:-----------------------------------------------------------
G:-----------------------------------------------3-----------
D:-5-----5-6-----6-5-----5-6-----6-5-----5-6---5-1-3---5-5\--
A:---3-3-----3-6-----3-3-----3-6-----3-3-----3-3---1-5-3-3\--
E:-------------------------------------------1-------3-------



Tablature explanation:
p.m = palm muted
ah = hammer on
p = pull off
/ = slide up
\ = slide down
~ = vibrato
A.H = Artificial Harmonic("scream")
-*---*-
-*---*- = play twice
Рубрики:  tabs

TAB

Дневник

Среда, 06 Июля 2005 г. 23:22 + в цитатник
Ada_Demina (Nightwish_fans) все записи автора Stargazers
by Nightwish
from Oceanborn
--------------------



Tabbed by: Fredrik Olsson
e-mail: fredrik.olsson@mbox329.swipnet.se


regular tuning (E)



Intro:

p.m . . . . . . . . . . . .
e:--------------------------------------------------
B:--------------------------------------------------
G:--------------------------------------------------
D:--------------------------------------------8--5--
A:-----5-5-5-5-3-----5-5-5-5-3-----5-5-5-5-3--6--3--
E:-----3-3-3-3-1-----3-3-3-3-1-----3-3-3-3-1--------

p.m . . . . . . . . . . . .
e:--------------------------------------------------
B:--------------------------------------------------
G:--------------------------------------------------
D:--------------------------------------------8-----
A:-----5-5-5-5-3-----5-5-5-5-3-----5-5-5-5-3--6--3--
E:-----3-3-3-3-1-----3-3-3-3-1-----3-3-3-3-1-----1--



guit/keyb. riff:

e:-----------------------------------------5-6-5---10-8-6-5-8-6-5-------10-8-6-5-6------------------
B:-------------------------7-8-7-------7-8-------8------------------6-8--------------8----8---8---8-
G:-----4-5-7-8-7-5-4-5-7-8-------8-7-8----------------------------8----------------8---10---8---7---
D:-5-6----------------------------------------------------------------------------------------------
A:--------------------------------------------------------------------------------------------------
E:--------------------------------------------------------------------------------------------------

e:-----------------------------------------5-6-5---10-8-6-5-8-6-5-
B:-------------------------7-8-7-------7-8-------8----------------
G:-----4-5-7-8-7-5-4-5-7-8-------8-7-8----------------------------
D:-5-6------------------------------------------------------------
A:----------------------------------------------------------------
E:----------------------------------------------------------------


1st:

e:-------10-8-6-5-6-8-6-8-5-5-3-5-1-
B:---6-8----------------------------
G:-8--------------------------------
D:----------------------------------
A:----------------------------------
E:----------------------------------

2nd:

e:----------13-11-10-11----10-11-10-11-8-8-6-8-5-
B:----10-11-------------13-----------------------
G:-12--------------------------------------------
D:-----------------------------------------------
A:-----------------------------------------------
E:-----------------------------------------------



Rhythm guitar:

p.m all the way..
e:-------------------------------------------------------------
B:-------------------------------------------------------------
G:-------------------------------------------------------------
D:-------------------------------------------------------------
A:-----------5*--------6*---3*-------------5*--------6*--------
E:-3*---4*--------3*-------------3*---4*--------3*--------1*---




Intro riff:

p.m . . . . . . . . . . . .
e:---------------------------------------------------
B:---------------------------------------------------
G:---------------------------------------------------
D:--------------------------------------------8------
A:-----5-5-5-5-3-----5-5-5-5-3-----5-5-5-5-3--6--3---
E:-----3-3-3-3-1-----3-3-3-3-1-----3-3-3-3-1-----1---




guitar 1:

e:------------------8---10--8--10h11p10-
B:-11-10-8----11-10---------------------
G:---------7----------------------------
D:--------------------------------------
A:--------------------------------------
E:--------------------------------------

guitar 2:

e:-----------------------/6--5--6h8p6---
B:--------------------------------------
G:--------------------------------------
D:--------------------------------------
A:--------------------------------------
E:--------------------------------------

guitar 1:

e:------------------8---10-8--------------
B:-11-10-8----11-10----------11-10--6-/8--
G:---------7------------------------------
D:----------------------------------------
A:----------------------------------------
E:----------------------------------------

guitar 2:

e:----------------------13-11-10----13-/15--
B:-------------------------------10---------
G:------------------------------------------
D:------------------------------------------
A:------------------------------------------
E:------------------------------------------


guitar 3:

e:----------------------------------
B:----------------------------------
G:----------------------------------
D:-5---3---3-----5----5---3---3--7--
A:-5---3---1--3--5----5---3---1--5--
E:-3---1------1--3----3---1---------



Verse:

A grand oasis..

p.m . . ... ... ... . . . . .
e:-----------------------------------------------------------------------
B:-----------------------------------------------------------------------
G:----------8---3-------------------8------------------------------------
D:-5---6-5--8---3-3---3----5---6-5--8--3---3-------------------3-5p3-----
A:-5---6-5--6---1-3---3----5---6-5--6--3---3---------------3-5-------5-3-
E:-3---4-3--------1-1-1-2--3---4-3-----1-1-1-2-333-333-333---------------



Chorus:

Tragedienne of heavens..

p.m . . . . . . . . . . . . . . . . . . . . . . .
e:-----------------------------------------------------------------------------------------------
B:-----------------------------------------------------------------------------------------------
G:----------------------3---3---------------------------------------------------3---3--------5---
D:-5------3-------------1-1-1--3---3----------5------5------3-----3-------------1-1-1--------5---
A:-3-3*---1-1*---1-3-1---------1-1-1--3-3-3-3-3-3*---3-3*---1-1*--1-1-1-1-1-3-1-------5---5--3---
E:------------------------------------------------------------------------------------3-3-3------




guitar 1:

e:------------------8---10--8--10h11p10-
B:-11-10-8----11-10---------------------
G:---------7----------------------------
D:--------------------------------------
A:--------------------------------------
E:--------------------------------------

guitar 2:

e:-----------------------/6--5--6h8p6---
B:--------------------------------------
G:--------------------------------------
D:--------------------------------------
A:--------------------------------------
E:--------------------------------------

guitar 1:

e:------------------8---10-8--------------
B:-11-10-8----11-10----------11-10--6-/8--
G:---------7------------------------------
D:----------------------------------------
A:----------------------------------------
E:----------------------------------------

guitar 2:

e:----------------------13-11-10----13-/15--
B:-------------------------------10---------
G:------------------------------------------
D:------------------------------------------
A:------------------------------------------
E:------------------------------------------


guitar 3:

e:----------------------------------
B:----------------------------------
G:----------------------------------
D:-5---3---3-----5----5---3---3--7--
A:-5---3---1--3--5----5---3---1--5--
E:-3---1------1--3----3---1---------



Verse:

Floating upon the quiet hydrogen lakes..

p.m . . ... ... ... . . . . .
e:---------------------------------------------------------------------
B:---------------------------------------------------------------------
G:----------8---3-------------------8----------------------------------
D:-5---6-5--8---3-3---3---5------5--8--3---3-----------------3-5p3-----
A:-5---6-5--6---1-3---3---5------5--6--3---3-------------3-5-------5-3-
E:-3---4-3--------1-1-1-2-3---4~-3-----1-1-1-333-333-333---------------



Chorus:

Tragedienne of heavens..

p.m . . . . . . . . . . . . . . . . . . . . . . . . . . .
e:-------------------------------------------------------------------------------------------------------
B:-------------------------------------------------------------------------------------------------------
G:----------------------3---3---------------------------------------------------3---3--------5-----------
D:-5------3-------------1-1-1--3---3----------5------5------3-----3-------------1-1-1--------5-----------
A:-3-3*---1-1*---1-3-1---------1-1-1--3-3-3-3-3-3*---3-3*---1-1*--1-1-1-1-1-3-1-------5---5--3---6-5-3---
E:------------------------------------------------------------------------------------3-3-3------------6-



guitar 1:

e:------------------8---10--13-11-10----
B:-11-10-8----11-10------------------8--
G:---------7----------------------------
D:--------------------------------------
A:--------------------------------------
E:--------------------------------------

guitar 2:

e:-----------------------/6--5--6h8p6---
B:--------------------------------------
G:--------------------------------------
D:--------------------------------------
A:--------------------------------------
E:--------------------------------------

guitar 1:

e:------------------8---10-8--------------
B:-11-10-8----11-10----------11-10--6-/8--
G:---------7------------------------------
D:----------------------------------------
A:----------------------------------------
E:----------------------------------------

guitar 2:

e:----------------------13-11-10----13-/15--
B:-------------------------------10---------
G:------------------------------------------
D:------------------------------------------
A:------------------------------------------
E:------------------------------------------


guitar 3:

e:----------------------------------
B:----------------------------------
G:----------------------------------
D:-4---3---3-----5----5---3---3--7--
A:-4---3---1--3--5----5---3---1--5--
E:-3---1------1--3----3---1---------





Oracle of the Delfian Dominie..

p.m. . . . . . . . .
e:--------------------------------
B:--------------------------------
G:--------------------------------
D:-5-5\---5-5---6--5-5---5-5----9--
A:-5-5\---5-5---4--5-5---5-5----7--
E:-3-3\---3-3------3-3---3-3--3----


Wanderers in cosmic caravan..

p.m . . . . . . . . . . . . . . . . . . . . .
e:-----------------------------------------------------------
B:-----------------------------------------------------------
G:-----------------------------------------------------------
D:-5--5-5-5--5-5-5--5-5-5--5-5-5--5-5-5--5-5-5--5-5-5--3-5\--
A:-5--5-5-5--5-5-5--5-5-5--5-5-5--5-5-5--5-5-5--5-5-5--3-5\--
E:-3--3-3-3--3-3-3--3-3-3--3-3-3--3-3-3--3-3-3--3-3-3--1-3\--

e:------
B:------
G:------
D:-5----
A:-5----
E:-3----

p.m. . . . . . . . . . . . . . . . . . .
e:-------------------------------------------------
B:-------------------------------------------------
G:-----------------------------------------------2-
D:---------------------------------------------2-0-
A:-2-2-2--2--2-2-2--2-2-2-2-2--2-2-2--2--2-2-2-0---
E:-0-0-0--0--0-0-0--0-0-0-0-0--0-0-0--0--0-0-0-----

. . . . . . . . . . . . . . . . . . . . .
e:-------------------------------------------------
B:-------------------------------------------------
G:-------------------------------------------------
D:-------------------------------------------------
A:-2-2-2--2--2-2-2--2-2-2-2-2--2-2-2--2--2-2-2-----
E:-0-0-0--0--0-0-0--0-0-0-0-0--0-0-0--0--0-0-0-3-3-



Keyboard solo:

e:---------------------
B:---------------------
G:---------------------
D:-7----3----7----3----
A:-7----3----7----3----
E:-5----1----5----1----



A son in search for the truth

p.m . . . . . . . . . . . . . . . . . . . . . . . . . . . . . . . . . . . . .
e:-------------------------------------------------------------------------------------------------
B:-------------------------------------------------------------------------------------------------
G:-------------------------------------------------------------------------------------------------
D:-5--5-5-5--5-5-5--5-5-5--5-5-5--5-5-5--5-5-5--5-5-5--3-5--5-5-5--5-5-5--5-5-5--5-5-5---3-3-3-5-5-
A:-5--5-5-5--5-5-5--5-5-5--5-5-5--5-5-5--5-5-5--5-5-5--3-5--5-5-5--5-5-5--5-5-5--5-5-5---1-1-1-3-3-
E:-3--3-3-3--3-3-3--3-3-3--3-3-3--3-3-3--3-3-3--3-3-3--1-3--3-3-3--3-3-3--3-3-3--3-3-3-------------


Discovering the origin of dreams

p.m . . . . . . . . . . . . . . . . . . . . .
e:-----------------------------------------------------------
B:-----------------------------------------------------------
G:-----------------------------------------------------------
D:-5--5-5-5--5-5-5--5-5-5--5-5-5--5-5-5--5-5-5--5-5-5--3-5\--
A:-5--5-5-5--5-5-5--5-5-5--5-5-5--5-5-5--5-5-5--5-5-5--3-5\--
E:-3--3-3-3--3-3-3--3-3-3--3-3-3--3-3-3--3-3-3--3-3-3--1-3\--


Stargazers ride through the ancient realms


e:-----
B:-----
G:-----
D:-5---
A:-5---
E:-3---

p.m. . . . . . . . . . . . . . . . . . .
e:-------------------------------------------------
B:-------------------------------------------------
G:-----------------------------------------------2-
D:---------------------------------------------2-0-
A:-2-2-2--2--2-2-2--2-2-2-2-2--2-2-2--2--2-2-2-0---
E:-0-0-0--0--0-0-0--0-0-0-0-0--0-0-0--0--0-0-0-----

. . . . . . . . . . . . . . . . . . . . .
e:-------------------------------------------------
B:-------------------------------------------------
G:-------------------------------------------------
D:-------------------------------------------------
A:-2-2-2--2--2-2-2--2-2-2-2-2--2-2-2--2--2-2-2-----
E:-0-0-0--0--0-0-0--0-0-0-0-0--0-0-0--0--0-0-0-3-3-



Guitar solo:


guitar 1:

e:-------------------------------------------------------------------
B:------------------10-12-13--12--10h12p10----10---------------------
G:----------9-10-12------------------------9------12--10--9h10p9-----
D:-9-10-12-------------------------------------------------------10--
A:-------------------------------------------------------------------
E:-------------------------------------------------------------------

e:----------------------------------------10-12-15--13-12h13p12-------
B:-------------------------------10-12-13-----------------------13--\-
G:-----------------------9-10-12--------------------------------------
D:-9-10----------9-10-12----------------------------------------------
A:------12-10-12------------------------------------------------------
E:--------------------------------------------------------------------

guitar 2:

e:---------------------
B:---------------------
G:---------------------
D:-7----3----7----3----
A:-7----3----7----3----
E:-5----1----5----1----



p.m. . . . . . . . . . . .
e:---------------------------------------------------
B:---------------------------------------------------
G:---------------5-5-------------------------3--5----
D:--------3-3----3-3--3-5-5-----------3-3----1--3----
A:-5-5----1-1--1--------3-3--3-5-5----1-1--1------5--
E:-3-3--3----------------------3-3--3-------------3--

e:-------------------------
B:-------------------------
G:-----3-----5-----3--3--5-
D:--5--3--3--5--5--3--1--3-
A:--5--1--3--3--5--1-------
E:--3-----1-----3----------

guitar 1:

e:-------------------
B:-------------------
G:-------------------
D:-5---3--0----------
A:------------1------
E:---------------3---

guitar 2:

e:-------------------
B:-------------------
G:-------------------
D:-8---7--5------5---
A:------------5------
E:-------------------



Flute...



e:----------
B:----------
G:-8-----5--
D:-8--5--5--
A:-6--5--3--
E:----3-----


Chorus:

Tragedienne of heavens..

guitar 1:

e:------------------8---10--8--10h11p10-
B:-11-10-8----11-10---------------------
G:---------7----------------------------
D:--------------------------------------
A:--------------------------------------
E:--------------------------------------


guitar 1:

e:------------------8---10-8--------------
B:-11-10-8----11-10----------11-10--6-/8--
G:---------7------------------------------
D:----------------------------------------
A:----------------------------------------
E:----------------------------------------


guitar 2:

e:--------------------------------------
B:--------------------------------------
G:--------------------------------------
D:-5---3---3-----5----5---3---3--7--5---
A:-5---3---1--3--5----5---3---1--5--5---
E:-3---1------1--3----3---1---------3---




Guit/keyb. riff:

e:-----------------------------------------5-6-5---10-8-6-5-8-6-5-
B:-------------------------7-8-7-------7-8-------8----------------
G:-----4-5-7-8-7-5-4-5-7-8-------8-7-8----------------------------
D:-5-6------------------------------------------------------------
A:----------------------------------------------------------------
E:----------------------------------------------------------------


1st:

e:-------10-8-6-5-6-8-6-8-5-5-3-5-1-
B:---6-8----------------------------
G:-8--------------------------------
D:----------------------------------
A:----------------------------------
E:----------------------------------

2nd:

e:----------13-11-10-11----10-11-10-11-8-8-6-8-5-
B:----10-11-------------13-----------------------
G:-12--------------------------------------------
D:-----------------------------------------------
A:-----------------------------------------------
E:-----------------------------------------------



Rhythm guitar:

p.m all the way..
e:-------------------------------
B:-------------------------------
G:-------------------------------
D:-------------------------------
A:-----------5*--------6*---8*---
E:-3*---4*--------3*-------------



end:

p.m. . . . . . .
e:--------------------
B:--------------------
G:--------------------
D:----------------5---
A:----------5-5-5-5---
E:-3-3-3-3--3-3-3-3---



Tablature explanation:
p.m = palm muted
* = continue picking
h = hammer on
p = pull off
/ = slide up
\ = slide down
~ = vibrato
Рубрики:  tabs

TAB

Дневник

Среда, 06 Июля 2005 г. 23:19 + в цитатник
Ada_Demina (Nightwish_fans) все записи автора Two For Tragedy
by Nightwish
from Wishmaster
--------------------



Tabbed by: Fredrik Olsson
e-mail: fredrik.olsson@mbox329.swipnet.se

www.stratotabs.cjb.net



regular tuning (E)

------------------------------------------------------------------------------
- -
- This tab only covers the guitarparts, which means from solo to the end.. -
- -
------------------------------------------------------------------------------



Sleep Eden sleep
My fallen son
Slumber in peace

Cease the pain
Life's just in vain
For us to gain
Nothing but all the same

No healing hand
For your disease
Drinking scorn like water
Cascading with my tears

Beneath the candle bed
Two saddened angels - in heaven, in death

Now let us lie
Sad we lived sad we die
Even in your pride
I never blamed you

A mother's love
Is a sacrifice
Together sleeping
Keeping it all



after 2,33

Solo:

e:--------------------------------------8---7---------------------------------------------
B:-10--8-------10--8----------------7-8-------10-7-8--------------------------------------
G:--------7-9--------7-9-b9(11)-9---------------------7-9----7----------------------------
D:--------------------------------------------------------10---9-10-9---------------------
A:--------------------------------------------------------------------10-/12-10-9-5-/7~---
E:----------------------------------------------------------------------------------------

p.m. . . . . . . .
e:--------------------------------------------------------------------
B:-------------------------------------------------7-7-8---10-10-12---
G:---------------7-9---7--\----------7----7-9--7-9-------9------------
D:--------7-9-10-----9------9h10--10---10-----------------------------
A:-7-9-10-------------------------------------------------------------
E:--------------------------------------------------------------------



Chorus:


No sympathy
No eternity
One light for each undeserved tear

e:-------------------------------------------
B:-------------------------------------------
G:-----5---7------4--5---------------5---4---
D:-2---5---7---5--4--5---5---7---2---5---4---
A:-2---3---5---5--2--3---5---7---2---3---2---
E:-0-----------3---------3---5---0-----------


Beneath the candle bed
Two souls with everything yet to be said



Tablature explanation:
p.m = palm muted
h = hammer on
/ = slide up
\ = slide down
~ = vibrato





www.stratotabs.cjb.net
Рубрики:  tabs

Tab - Sleeping Sun

Дневник

Среда, 06 Июля 2005 г. 23:17 + в цитатник
Ada_Demina (Nightwish_fans) все записи автора В колонках играет - Nightwish "Sleeping Sun"

Nightwish -Sleeping Sun From Four Ballads Of The Eclipse
Tab By Abel...Of Darkness (midgar31@hotmail.com)

standard tuning (EADGBE)



Dm C Dm
The sun is sleeping quietly
C F
Once upon a century
C F
Wistful oceans calm and red
E Dm
Ardent caresses laid to rest
F Dm
For my dreams I hold my life
C A#
For wishes I behold my nights
Gm
A truth at the end of time
Dm
Losing faith makes a crime


Dm A# F
I wish for this night-time to last for a life-time
Gm Dm A# F E
The darkness around me - shores of a solar sea
Dm A# C
Oh how I wish to go down with the sun
F
Sleeping
C
Weeping
Dm
With you


Dm C Dm
Sorrow has a human heart
C F
From my God it will depart
C F
I`d sail before a thousand moons
E Dm
Never finding where to go
C Dm
222 days of light
C A#
Will be desired by a night
Gm
A moment for the poet`s play
Dm
Until there`s nothing left to say



Dm A# F
I wish for this night-time to last for a life-time
Gm Dm A# F E
The darkness around me - shores of a solar sea
Dm A# C
Oh how I wish to go down with the sun
F
Sleeping
C
Weeping
Dm
With you

Solo
Рубрики:  tabs

Walking In The Air

Дневник

Среда, 06 Июля 2005 г. 23:14 + в цитатник
Ada_Demina (Nightwish_fans) все записи автора В колонках играет - Nightwish "Walking In The Air "

Nightwish - Walking In The Air From Oceanborn
Tab by Abel...Of Darkness (Midgar31@hotmail.com)

Standard Tuning (EADGBE)




Chord: 1:10
|-------|
|-------|
|---7---|
|---7---|
|---5---|
|-------|


Solo: 2:47
|--------------------------------------------------------|
|--------------------------------------------------------|
|----19-19-17-17-----------19-19-17-17-14-10-12~-/14-12--|
|-19-------------19-----19-------------------------------|
|--------------------------------------------------------|
|--------------------------------------------------------|

|--------------------------------------------------------|
|--------------------------------------------------------|
|-12-14-/15-14-12~---------------------------------------|
|-------------------12-14-/15-14-12---10-12p10-----------|
|----------------------------------------------12~-------|
|--------------------------------------------------------|

|------------------------------------------------------------|
|----15----17-/18-17p15-13-15p13----------15----17-/18-17h18-|
|-14----14-----------------------14~---14----14--------------|
|------------------------------------------------------------|
|------------------------------------------------------------|
|------------------------------------------------------------|

|------------------------------------------------------------|
|-/20~-/22-20~--20h22-/23-22-20--15h17-/18-17-15-13-15p13----|
|---------------------------------------------------------14-|
|------------------------------------------------------------|
|------------------------------------------------------------|
|------------------------------------------------------------|


Riff A: 3:49
Two Times:
|------------------------------------------------------------|
|------------------------------------------------------------|
|-7----------5----/7--5--------------2-3----------5----------|
|-7----------5----/7--5----5---------2-3----------5----------|
|-5----------3-------------5---------0-1----------3----------|
|--------------------------3---------------------------------|


Riff B: 4:28
|------------------------------------------------------------|
|------------------------------------------------------------|
|-7-----7-----7-----7-----7-----7-----7-----7-----7-----7-7--|
|-7-----7-----7-----7-----7-----7-----7-----7-----7-----7-7--|
|-5-5-5-5-5-5-5-5-5-5-5-5-5-5-5-5-5-5-5-5-5-5-5-5-5-5-5-5-5--|
|------------------------------------------------------------|

|------------------------------------------------------------|
|------------------------------------------------------------|
|-7-----7---5----/7--5--------------------------3-------5----|
|-7-----7---5----/7--5-----5--------5-----5-----3-------5----|
|-5-5-5-5---3--------------5--------5-----5-----1-------3----|
|--------------------------3----3-3-3-3-3-3-3-3--------------|

|----------------------------------------------|
|----------------------------------------------|
|-7-----7-----7-----7-----7-----7-----7-----7--|
|-7-----7-----7-----7-----7-----7-----7-----7--|
|-5-5-5-5-5-5-5-5-5-5-5-5-5-5-5-5-5-5-5-5-5-5--|
|----------------------------------------------|

|------------------------------------------------------------|
|------------------------------------------------------------|
|-7-----7-----7-----7-----7-----7-----7-----7-----7-----7-7--|
|-7-----7-----7-----7-----7-----7-----7-----7-----7-----7-7--|
|-5-5-5-5-5-5-5-5-5-5-5-5-5-5-5-5-5-5-5-5-5-5-5-5-5-5-5-5-5--|
|------------------------------------------------------------|

|------------------------------------------------------------|
|------------------------------------------------------------|
|-7-----7---5----/7--5----------------------------3~-------5~|
|-7-----7---5----/7--5-----5--------5-----5------------------|
|-5-5-5-5---3--------------5--------5-----5-----1-------3----|
|--------------------------3----3-3-3-3-3-3-3-3--------------|

|------------------------------------------------------------|
|----------------------------------------3-------------------|
|-2~--------------------------------------2------------------|
|---------5~-----3~-----/5~-------2~-------0-----------------|
|-------------------------------------------0----------------|
|------------------------------------------------------------|
Рубрики:  tabs


 Страницы: [1]