-Музыка

 -Подписка по e-mail

 
Получать сообщения дневника на почту.

 -Поиск по дневнику

люди, музыка, видео, фото
Поиск сообщений в Nightwish_fans

 -Сообщества

Читатель сообществ (Всего в списке: 1) Найтвиш

 -Статистика

Статистика LiveInternet.ru: показано количество хитов и посетителей
Создан: 05.07.2005
Записей: 1917
Комментариев: 18991
Написано: 19002

Создатель сообщества - smile-and-cry

Модератор сообщества в данный момент - Swanheart69

Ещё отдельную благодарность хочу выразить - Dairine (за обновление нашего фотоальбома) и Wish_Mas_Ter (за ссылки для скачивания).

Сообщества:


Сайты с подобной тематикой и партнёры:
official website:
http://www.nightwish.com

Our friends, russian official website: http://www.nightwish.com.ru

Official WebSite for Tuomas Holopainen

Our friends, website Nightwish Russia: http://www.nightwishrussia.nm.ru

Our friends, website Tarja Turunen Russia: http://www.tarjaturunen.ru

 

 Beauties in Darkness

Сообщество группы EPICA

 

 Наш баннер:

 

 

Прежде, чем вы вступите в сообщество или решитесь на деятельность в нём, ознакомьтесь с его правилами

http://www.liveinternet.ru/community/nightwish_fans/post51740884/

  Грядущие события:  

Продолжается тур в поддержку нового альбома


 САЙТ СООБЩЕСТВА

Сайт сообщества nightwish_fans

Erno Vuorinen

Воскресенье, 17 Июля 2005 г. 19:45 + в цитатник
Ada_Demina (Nightwish_fans) все записи автора emppus.jpg (150x225, 23Kb)
Имя: Erno Vuorinen
Дата рождения: 24 Июня 1978
Место жительства: Kitee, Finland
E-mail: emppu@nightwish.com
Увлечения: Просто бродить вокруг.
Музыкальное прошлое: Я начал играть на гитаре на частных курсах когда мне исполнилось 12 лет. С этого момента я играл во многих группах.

Предпочтения:

Еда: Говядина в коньячном соусе.
Напиток: Пиво.
Фильм: "Враг государства" вроде ничего.
Режиссер:У меня нет любимого режиссера.
ТВ-программа: Я не смотрю ТВ-программы регулярно.
Актер/Актриса: Sandra "Bulldog"
Книга: 1001 positions.
Автор: Я не много читаю. На самом деле я не читал вс╦.
Группа: Yцlintu. Хех.. их много.
Альбом: Очень трудно выбрать один. Слишком много хороших.
Песня: Много, но я часто cлушаю "I want Out" группы Helloween и е╦ всегда приятно послушать.
Время года: Позднее лето/ранняя осень.
Наше лучшее выступление: Ilosaarirock '99
Лучшее выступление: Их много. Единственное что приходит сейчас на ум это выступление Stratovarious в Jyvaskyla около 3 лет назад.
Самое страшное: Дуэт с Tuomas'ом перед многотысячной аудиторией.
Место куда бы вы хотели уехать: Египет
Жизненная философия: Секс, Наркотики и Rock'n Roll... Ха.
Инструменты: Laney amp, Marshall cabinet и гитара Washburn.
Рубрики:  Emppu Vuorinen
promo-photo

Jukka Nevalainen

Воскресенье, 17 Июля 2005 г. 19:42 + в цитатник
Ada_Demina (Nightwish_fans) все записи автора jukkas.jpg (150x225, 27Kb)
Имя: Jukka Nevalainen
Дата рождения: 21 Апреля 1978
Место жительства: Kitee, Finland
E-mail: jukka@nightwish.com
Увлечения: Плавание, бадминтон, музыка.
Музыкальное прошлое: Я начал играть на ударных когда был в 5 классе, но первые пять лет я тренеровался только полчаса в неделю т.к. у меня не было другого места чтобы играть. Я играл в разных группах которые играли различную музыку.

Предпочтения:

Еда: Вегетарианская.
Напиток: С продуктами я пью молоко, а когда я не ем я пью "leijonaviina" (Финская водка) с яблочным соком.
Фильм: "Гладиатор" (Gladiator)
Режиссер: Ridley Scott
ТВ-программа: The Simpsons и Men behaving badly.
Актер/актриса: Russell Grove
Книга: Драконы осенних сумерек
Автор: Margaret Weis и David Eddings
Группа: Dream Theater, Stratovarius
Альбом: Gladiator - soundtrack, Dream Theater: Images & Words
Песня: Whole Gladiator - soundtrack, Black Diamond by Stratovarius / Eden by Sarah Brightman
Время года: Лето
Наше лучшее выступление: Sao Paulo 2000
Лучшее выступление: Dream Theater в Helsinki в Марте 2000
Самое страшное: Смесь Hip-Hop/Rap/Soul-music
Место куда бы вы хотели уехать: Египет
Жизненная философия: Жить каждый день, так как если бы это была вся жизнь.
Инструменты: Tama Starclassic барабаны, Zildjian тарелки, Pro Mark палки and Remo кожа на барабане
Рубрики:  Jukka Nevalainen
promo-photo

Tuomas Holopainen

Воскресенье, 17 Июля 2005 г. 19:39 + в цитатник
Ada_Demina (Nightwish_fans) все записи автора tuomass.jpg (150x225, 26Kb)
Имя: Tuomas Holopainen
Дата рожения: 25 Декабря 1976
Место жительства: Kitee, Finland
E-mail: tuomas@nightwish.com
Увлечения: Музыка, кино, путешествия и коллекционирование всего, что связано с Disney.
Музыкальное прошлое: Я начал играть на пианино когда мне было 8 лет. В 9 лет я начал играть на кларнете и стал изучать теорию по музыке в музыкальном колледже где я также получил диплом. Я играл на саксофоне в джаз-группе и на кларнете в духовом оркестре.Синтезатор стал моим инструментом когда мне исполнилоь 16 лет и я играл в различных группах, к примеру в Nattvindens Grеt.

Предпочтения:

Еда: Мексиканская, суши.
Напиток: Кофе.
Фильмы: "Храброе сердце"(Braveheart), "Сонная Лощина"(Sleepy Hollow), "Гладиатор"(Gladiator).
Режиссер: James Cameron
ТВ-программа: MacGyver
Актер/Актриса: Morgan Freeman
Книга: "Властелин колец"
Автор: Дж.Р.Р.Толкиен, Стивен Кинг
Музыка: Hans Zimmer, Danny Elfman, Sonata Arctica, Vangelis, Rhapsody, Pantera, Children Of Bodom
Альбом: Soundtrack к х/ф "Гладиатор"
Песня: Walking In The Air by Howard Blake
Время года: Зима
Наше лучшее выступление: Sao Paulo, Июль 2000
Лучшее выступление: Metallica/Guns'n Roses в Kansas City осенью '92
Самое страшное: Пауки
Место куда бы вы хотели уехать: Африка
Жизненная философия: The Road Goes Ever On
Инструменты: Различные модели Korg.
Рубрики:  Tuomas Holopainen
promo-photo

Nightwish

Воскресенье, 17 Июля 2005 г. 19:36 + в цитатник
Рубрики:  Nightwish
screenshoots

Nightwish

Воскресенье, 17 Июля 2005 г. 19:29 + в цитатник
Рубрики:  Nightwish
screenshoots

Nightwish

Воскресенье, 17 Июля 2005 г. 19:27 + в цитатник
Рубрики:  photo-live

Tarja Turunen

Воскресенье, 17 Июля 2005 г. 19:23 + в цитатник
Ada_Demina (Nightwish_fans) все записи автора В колонках играет - Nightwish "Two For Tragedy"

Имя: Tarja Turunen
Дата Рождения: 17 Августа 1977
Место жительства: Helsinki, Finland
E-mail: tarja@nightwish.com
Увлечения: Музыка - это одновременно моя работа и увлечение. Музыкальное прошлое: Я начала петь с помощью моего учителя и брала частные уроки игры на пианино когда я была в младших классах начальной школы. Когда я перешла в старшие классы начальной школы я начала играть на флейте в музыкальном колледже. В высшей музыкальной школе в Savonlinna я стала заниматся классическим пением и в музыкальном театре. Потом я перешла учится в Sibelius Academy чтобы изучать церковную музыку. Сейчас я специализируюсь на классическом пении.

Предпочтения:

Еда: Курица.
Напиток: Красное вино.
Фильм: "Гладиатор" ("The Gladiator").
Музыка: От классики до хард-рока.
Режиссер: Ridley Scott.
ТВ-программа: Я мало смотрю ТВ, но я смотрю новости и лучшие фильмы по выходным.
Актер/Актриса: Russel Crowe.
Книга: RT.
Автор: Mika Waltari.
Группа: Тяжело назвать только одну. Сущуствует множество отличных групп.
Альбом: Gladiator soundtrack.
Песня: Von Ewiger Liebe by Brahms.
Время года: Весна.
Наше лучшее выступление: Весь Южно-Американский тур.
Лучшее выступление: Опера в театре Norma Colon's в Buenos Aires. Это было действительно здорово.
Самое страшное: Я встаю утром без голоса!
Место куда бы вы хотели уехать: Экзотический, маленький остров где-то далеко, далеко отсюда. Нет туризма, нет Финнов. Только тишина.
Жизненная философия: Улыбка : )
tarjas.jpg (150x225, 29Kb)
Рубрики:  Tarja Turunen
promo-photo

Без заголовка

Суббота, 16 Июля 2005 г. 23:28 + в цитатник
Рубрики:  avatars
Tarja Turunen

Nightwish

Суббота, 16 Июля 2005 г. 23:13 + в цитатник
Рубрики:  Nightwish
screenshoots

Nightwish

Суббота, 16 Июля 2005 г. 23:11 + в цитатник
Рубрики:  Nightwish
screenshoots

Nightwish

Пятница, 15 Июля 2005 г. 17:30 + в цитатник
Рубрики:  Nightwish
screenshoots

Nightwish

Пятница, 15 Июля 2005 г. 17:24 + в цитатник
Рубрики:  Nightwish
screenshoots

Alles privetus!

Пятница, 15 Июля 2005 г. 14:43 + в цитатник
Daedra (Nightwish_fans) все записи автора В колонках играет - Nightwish - Lagoon
Настроение сейчас - нормально

Всем привет! Наконец нашла сообщество моей любимой группы. Надеюсь появляться здесь часто.
Люди, на этом вот http://www.nightwish.com.ru/ сайте есть почти все табы, а на те, которых нет, есть ссылки. И вообще сайт этот очень замечательный. Я на нём два года. Там очень тёплая атмосфера на форуме, и именно оттуда меня надоумили прити на liveinternet. =)
0,3174,44718,00.jpg (417x685, 67Kb)
Рубрики:  links
Emppu Vuorinen
various photo

НОВЫЕ ПЕСНИ. Ссылки.

Понедельник, 11 Июля 2005 г. 13:21 + в цитатник
Ada_Demina (Nightwish_fans) все записи автора http://www.zaycev.net/pages/38/3835.shtml - новая песня, дуэт Тарьи и какого-то парня. Прикольно, советую скачать (по ссылке - бесплатно) и ознакомиться.
Рубрики:  mp3-songs
projects
Tarja Turunen

tabs

Пятница, 08 Июля 2005 г. 23:07 + в цитатник
Рубрики:  tabs

nemo

Среда, 06 Июля 2005 г. 23:47 + в цитатник
Рубрики:  Emppu Vuorinen
Marco Hietala
Jukka Nevalainen
various photo

nemo

Среда, 06 Июля 2005 г. 23:46 + в цитатник
Рубрики:  Nightwish
various photo

сайт

Среда, 06 Июля 2005 г. 23:44 + в цитатник
Ada_Demina (Nightwish_fans) все записи автора Супер сайт, можно многое скачать, инфо, клипы, треки, ...
http://nw.nightquest.net/news.php
Рубрики:  links

tab - Angels Fall First.

Среда, 06 Июля 2005 г. 23:42 + в цитатник
Ada_Demina (Nightwish_fans) все записи автора Angels Fall First.



Tears laid for them..
e:---------0--------------3-----0-------------0---------------0----------
B:-----------0--------------1-----1-----------------------------1---0----
G:-------0-----2--------0-----0-----------0-7----7----------2-----2---0--
D:-----2---------2----2-----------------4----------4------2--------------
A:---2--------------3----------------/5---------------0-0----------------
E:-0---------------------------------------------------------------------

..fear
e:---------1--------------0------------------3--------------0---------
B:-----------1--------------1---1-0------------0--------------1---0---
G:-------2-----2--------0-----0------------0-----0--------2-----2---0-
D:-----3---------3----2------------------0---------0----2-------------
A:---3--------------3------------------2--------------0---------------
E:-1---------------------------------3--------------------------------

e:---------1--------------3-----0------------3--------
B:-----------1--------------1-----1------------0------
G:-------2-----2--------0-----0------------0-----0----
D:-----3---------3----2------------------0---------0--
A:---3--------------3------------------2--------------
E:-1---------------------------------3----------------


Verse:

Not relieved by thougts of Shangri-La..
e:---------0---------------0----------------3----------------2-3-2h3p2-----
B:-----------0---------------0--------- -------0-----------(3)----------3---
G:-------0-----2---------0-----2----------0-----0-------(2)--------------2-
D:-----2---------2-----2---------2------0---------0---(0)------------------
A:---2---------------2----------------2--------------0---------------------
E:-0---------------0----------------3--------------------------------------

e:---------0---------------0----------------3----------------2--------
B:-----------0---------------0----------------0------------0---0------
G:-------0-----2---------0-----2----------0-----0--------5-------5----
D:-----2---------2-----2---------2------0---------0----1--------------
A:---2---------------2----------------2--------------2-------------2--
E:-0---------------0----------------3---------------------------------

I'll never understand the meaning of the right..
e:---------0---------------0----------------3----------------2-3-2h3p2-----
B:-----------0---------------0----------------0-----------(3)----------3---
G:-------0-----2---------0-----2----------0-----0-------(2)--------------2-
D:-----2---------2-----2---------2------0---------0---(0)------------------
A:---2---------------2----------------2--------------0---------------------
E:-0---------------0----------------3--------------------------------------

e:---------0---------------0----------------3----------------2--
B:-----------0---------------0----------------0------------0----
G:-------0-----2---------0-----2----------0-----0--------5------
D:-----2---------2-----2---------2------0---------0----1--------
A:---2---------------2----------------2--------------2----------
E:-0---------------0----------------3---------------------------


Flute part:

Am Em Am G B


Chorus:

Needed elsewhere...
e:---------0--------------3-----0-------------0--------------0----------
B:-----------0--------------1-----1----------------------------1---0----
G:-------0-----2--------0-----0-----------0-7----7---------2-----2---0--
D:-----2---------2----2-----------------4----------4-----2--------------
A:---2--------------3----------------/5--------------0-0----------------
E:-0--------------------------------------------------------------------

Tears laid for them..
e:---------0--------------3-----0-------------0---------------0----------
B:-----------0--------------1-----1-----------------------------1---0----
G:-------0-----2--------0-----0-----------0-7----7----------2-----2---0--
D:-----2---------2----2-----------------4----------4------2--------------
A:---2--------------3----------------/5---------------0-0----------------
E:-0---------------------------------------------------------------------

..fear
e:---------1--------------0------------------3--------------0---------
B:-----------1--------------1---1-0------------0--------------1---0---
G:-------2-----2--------0-----0------------0-----0--------2-----2---0-
D:-----3---------3----2------------------0---------0----2-------------
A:---3--------------3------------------2--------------0---------------
E:-1---------------------------------3--------------------------------

e:---------1--------------3-----0---------------
B:-----------1--------------1-----1----------3--
G:-------2-----2--------0-----0------------0----
D:-----3---------3----2------------------0------
A:---3--------------3------------------2--------
E:-1---------------------------------3----------



more flutes..



solo:

guit1
e:-0--2-3-------------------------0--3-2h3p2p0--------------------------------------(12)-
B:--------0--0-1-3-1h3p1p0------(0)------------2-5--5-5--7-8-0--0-1-3-1h3p1p0------------
G:-------------------------0---(0)--------------------------------------------0-2--------
D:----------------------------(0)--------------------------------------------------------
A:---------------------------------------------------------------------------------------
E:---------------------------------------------------------------------------------------


flute solo..


guit2 1,2,3 4
e:---------0------------------------0--------|--------- e:-0-- end here the last time..
B:-----------0--------------------1---1------|------0-- B:-1--
G:-------0-----2----------0-----0-------0----|----2---- G:-2--
D:-----2---------2------0-----2-----------2--|---2----- x4 D:-2--
A:---2----------------2-----3----------------|-0------- A:-0--
E:-0----------------3------------------------|--------- E:----



Sing me a song...

Am Em Dm Am x6

fade out...





Tablature explanation:
(12) = ghost note
h = hammer on
p = pull off
/ = slide
Рубрики:  tabs

TAB

Среда, 06 Июля 2005 г. 23:41 + в цитатник
Ada_Demina (Nightwish_fans) все записи автора Author/Artist: Nightwish
Title: Come Cover Me
Album: Wishmaster
Transcribed by: X X X
Email: Student.art@gmx.de

Lets the ... Ruck'n Roll! ;-)
Hey it's a great Song and very easy to play ,so have a lot of FUN with it
and all Thanks to Mr.Tuomas Holopainen!!!(He is the Ging of Gothik!)


At first the flute enters!

And than the Guitar Intro!(There are two Guitars playing, so make your choise! )


Guitar1:
E:------------------------------------------------------------------------------|
B:--10-10/11-11-11\10-8-13-13/15-10-10\8-6-6/8-8--------------------------------|
G:-----------------------------------------------10\9-10\9-7--------------------|
D:------------------------------------------------------------------------------|
A:------------------------------------------------------------------------------|
E:------------------------------------------------------------------------------|


Guitar2:
E:------------------------------------------------------------------------------|
B:--3-3-3-3-3-3-3-3-3-3-3-3-3-3-3-3-3-3-3-3-3-3-3-3-3-3-3-3-3-3-3-3-------------|
G:--2-2-2-2-2-2-2-2-3-3-3-3-3-3-3\2-0-0-0-0-0-0-0-0-2-2-2-2-2-2-2p0--3-5-7------|
D:--0-0-0-0-0-0-0-0-0-0-0-0-0-0-0-0-0-0-0-0-0-0-0-0-0-0-0-0-0-0-0-0--3-5-7------|
A:-------------------------------------------------------------------1-3-5***---|
E:------------------------------------------------------------------------------|
x x x x x x x x x x x x x x x x

And than the 2nd time again!

Guitar1: (Emppu Vourinen)
E:----------------------------------------8-8\6---------------------------------|
B:--10-10/11-11-11\10-8-13-13/15-10-10/11-------8-------------------------------|
G:------------------------------------------------10\9-10\9-7-------------------|
D:------------------------------------------------------------------------------|
A:------------------------------------------------------------------------------|
E:------------------------------------------------------------------------------|

Guitar2: (Emppu Vourinen)
E:------------------------------------------------------------------------------|
B:--3-3-3-3-3-3-3-3-3-3-3-3-3-3-3-3-3-3-3-3-3-3-3-3-3-3-3-3-3-3-3-3-------------|
G:--2-2-2-2-2-2-2-2-3-3-3-3-3-3-3\2-0-0-0-0-0-0-0-0-2-2-2-2-2-2-2p0--3-5-7------|
D:--0-0-0-0-0-0-0-0-0-0-0-0-0-0-0-0-0-0-0-0-0-0-0-0------------------3-5-7------|
A:-------------------------------------------------------------------1-3-5***---|
E:------------------------------------------------------------------------------|
x x x x x x x x x x x x x x x x


Than Tarja enters with her sweet voice! "Come wet a widow's eye..."
Guitar1:
E:----------------------------------------------------|
B:----------------------------------------------------|
G:-4---------7----4-----------------------------------|
D:-4---------7-2--4--------2---------5--7---2---------|
A:-2**-**-**-5-2--2**-**-*-2---------5--7---2---------|
E:-------------0-----------0**-**-**-3--5---0**-**-*--|
x x x x


Guitar1:
E:---------------------------------------------------------------------->
B:--5-0-0-7-0-8-0-0-5-0-0-7-0-8-0-0-5-0-0-7-0-8-0-10-0-8-0-7-0-8-0-0---->
G:---------------------------------------------------------------------->
D:---------------------------------------------------------------------->
A:---------------------------------------------------------------------->
E:---------------------------------------------------------------------->
x x x x x x x x x x x x x x x x x x x



Guitar1:
E:--5-----7---8-----5-----7---8-----5-----7---8-----5------------------|
B:---------------------------------------------------------------------|
G:----4-4---4---4-4---4-4---4---4-4---4-4---4---4-4-----5--------------|
D:------------------------------------------------------5--5-----------|
A:------------------------------------------------------3--5-----------|
E:---------------------------------------------------------3-----------|
x x x x x x x x x x x x x x x A.H


And Tarja enters again! "Come cover me..."
Guitar1: Play 2 Times!
E:------------------------------------------------------------------------------|
B:--3-3-3-3-3-3-3-3-3-3-3-3-3-3-3-3-3-3-3-3-3-3-3-3-3-3-3-3-3-3-3-3-------------|
G:--2-2-2-2-2-2-2-2-3-3-3-3-3-3-3\2-0-0-0-0-0-0-0-0-2-2-2-2-2-2-2p0--3-5-7------|
D:--0-0-0-0-0-0-0-0-0-0-0-0-0-0-0-0-0-0-0-0-0-0-0-0------------------3-5-7------|
A:-------------------------------------------------------------------1-3-5------|
E:------------------------------------------------------------------------------|
x x x x x x x x x x x x x x x x


Guitar1: The short and easy solo!:-)
E:------------------------------------------------------------------------------>
B:-------------------------5/6---7/8----8-10-11-10h11p10------------------------>
G:---------7---7/8-8-8\7-5-----5-----7------------------------------------------>
D:--5-7-8------------------------------------------------15--13-12-10----------->
A:------------------------------------------------------------------------------>
E:------------------------------------------------------------------------------>
x x

E:------------------------------------------------------------------------------|
B:------------------------------------------------------------------------------|
G:------------------------------------------------------------------------------|
D:-----------12-----------------------------------------------------------------|
A:--10-12-13----13-12-10---8~-------5~------------------------------------------|
E:------------------------------------------------------------------------------|
x x x

Tarja: "For me for you...."
Guitar1: Play 2 times:
E:-------------------------------------------|
B:-------------------------------------------|
G:--7-----------------7----------5-----------|
D:--7----------3------7----------5----5------|
A:--5**-**-**--3------5**-**-**--3----5------|
E:-------------1----------------------3------|



Tarja: "Not a world but your fine grace..."
Guitar1:
E:----------------------------------------------------|
B:----------------------------------------------------|
G:-4---------7----4-----------------------------------|
D:-4---------7-2--4--------2---------5--7---2---------|
A:-2**-**-**-5-2--2**-**-*-2---------5--7---2---------|
E:-------------0-----------0**-**-**-3--5---0**-**-*--|
x x x x


Guitar1:
E:---------------------------------------------------------------------->
B:--5-0-0-7-0-8-0-0-5-0-0-7-0-8-0-0-5-0-0-7-0-8-0-10-0-8-0-7-0-8-0-0---->
G:---------------------------------------------------------------------->
D:---------------------------------------------------------------------->
A:---------------------------------------------------------------------->
E:---------------------------------------------------------------------->
x x x x x x x x x x x x x x x x x x x



Guitar1:
E:--5-----7---8-----5-----7---8-----5-----7---8-----5------------------|
B:---------------------------------------------------------------------|
G:----4-4---4---4-4---4-4---4---4-4---4-4---4---4-4-----5--------------|
D:------------------------------------------------------5--5-----------|
A:------------------------------------------------------3--5-----------|
E:---------------------------------------------------------3-----------|
x x x x x x x x x x x x x x x A.H


Only Tarja:"Come cover me with you...



Guitar1: Tarja:" COME COVER COME COVER ME NOW !"
E:---------------------------------------------------------------------------->
B:---------------------------------------------------------------------------->
G:--3--5-7-------------------------------------------------------------------->
D:--3--5-7-------------------------------------------------------------------->
A:--1--3-5***--5-----5-----5---6---6---6---6p5-3-----3-----3---5---5---5--5p3->
E:---------------3-3---3-3---3---3---3---3-------3-3---3-3---3---3---3---3---->
x x x x x x x x x x x x x x x x

--------------|
--------------|
--8-----------|
--8--3--5-----|
--6--3--5-----|
-----1--3-----|


THE END !!!
Рубрики:  tabs


Поиск сообщений в Nightwish_fans
Страницы: 94 ..
.. 4 3 [2] 1 Календарь